» » »

Little Talks Tabs (ver.4)

Artists:  A B C D E F G H I J K L M N O P Q R S T U V W X Y Z # 

Little Talks Tabs (ver.4)

Of Monsters And Men
Rating:
0/5 (0 votes)

Tabs too difficult? Try these video lessons and learn fast.
                ----------------------------------------------------------------------------
                      Little Talks - Of Monsters And Men
----------------------------------------------------------------------------

Tuning: Standard
Capo 1

The chord progression is very basic. For the Intro and the Chorus it's like this:
e|--0------1------0------3-----|
B|--1------1------1------0-----|
G|--2------2------0------0-----|
D|--2------3------2------0-----|
A|--0------3------3------2-----|
E|---------1-------------3-----|
    Am     F      C      G

In the verses the G is not play and you let the C ring:
e|--0------1------0------------|
B|--1------1------1------------|
G|--2------2------0------------|
D|--2------3------2------------|
A|--0------3------3------------|
E|---------1-------------------|
    Am     F      C

This is the lead Guitar part (originally a trumpet):
Intro
e|-------------------------------------------------------------------------|
B|---5-5-5---5---5-8---------5-5-5---5-------------------------------------|
G|-5-------5---5-------------------5---7-5------4-5-7----------------------|
D|-------------------------------------------------------------------------|
A|-------------------------------------------------------------------------|
E|-------------------------------------------------------------------------|

e|-------------------------------------------------------------------------|
B|---5-5-5---5---5-8---------5-5-5-8-5-------------------------------------|
G|-5-------5---5-----------------------7-5-----4---------------------------|
D|-------------------------------------------------------------------------|
A|-------------------------------------------------------------------------|
E|-------------------------------------------------------------------------|

Chorus
e|-------------------------------------------------------------------------|
B|---5-5-5---5---5-8---------5-5-5---5-------------------------------------|
G|-5-------5---5-------------------5---7-5------4-5-7----------------------|
D|-------------------------------------------------------------------------|
A|-------------------------------------------------------------------------|
E|-------------------------------------------------------------------------|

e|-------------------------------------------------------------------------|
B|---5-5-5---5---5-8---------5-5-5-8-5-------------------------------------|
G|-5-------5---5-----------------------7-5-----4---------------------------|
D|-------------------------------------------------------------------------|
A|-------------------------------------------------------------------------|
E|-------------------------------------------------------------------------|

Chorus
e|-------------------------------------------------------------------------|
B|---5-5-5---5---5-8---------5-5-5---5-------------------------------------|
G|-5-------5---5-------------------5---7-5------4-5-7----------------------|
D|-------------------------------------------------------------------------|
A|-------------------------------------------------------------------------|
E|-------------------------------------------------------------------------|

e|-5-5-5---5---------------------------------------------------------------|
B|-------8---8-8-------5-5-------------------------------------------------|
G|---------------7-7-7-----7-5-5-------------------------------------------|
D|-------------------------------------------------------------------------|
A|-------------------------------------------------------------------------|
E|-------------------------------------------------------------------------|

Bridge
e|-------------------------------------------------------------------------|
B|-------5-7-8-9-10-8--------5-5-5---5-------------------------------------|
G|-4-5-7---------------------------5---7-5------4-5-7----------------------|
D|-------------------------------------------------------------------------|
A|-------------------------------------------------------------------------|
E|-------------------------------------------------------------------------|

e|-5-5-5---5---------------------------------------------------------------|
B|-------8---8-8-------5-5-------------------------------------------------|
G|---------------7-7-7-----7-5-5---4---2-----------------------------------|
D|-------------------------------------------------------------------------|
A|-------------------------------------------------------------------------|
E|-------------------------------------------------------------------------|

Chorus
e|-------------------------------------------------------------------------|
B|---5-5-5---5---5-8---------5-5-5---5-------------------------------------|
G|-5-------5---5-------------------5---7-5------4-5-7----------------------|
D|-------------------------------------------------------------------------|
A|-------------------------------------------------------------------------|
E|-------------------------------------------------------------------------|

e|-5-5-5---5---------------------------------------------------------------|
B|-------8---8-8-------5-5-------------------------------------------------|
G|---------------7-7-7-----7-5-5-------------------------------------------|
D|-------------------------------------------------------------------------|
A|-------------------------------------------------------------------------|
E|-------------------------------------------------------------------------|

e|-------------------------------------------------------------------------|
B|---5-5-5---5---5-8---------5-5-5---5-------------------------------------|
G|-5-------5---5-------------------5---7-5------4-5-7----------------------|
D|-------------------------------------------------------------------------|
A|-------------------------------------------------------------------------|
E|-------------------------------------------------------------------------|

e|-5-5-5---5---------------------------------------------------------------|
B|-------8---8-8-------5-5-------------------------------------------------|
G|---------------7-7-7-----7-5-5-------------------------------------------|
D|-------------------------------------------------------------------------|
A|-------------------------------------------------------------------------|
E|-------------------------------------------------------------------------|

************************************

| /   slide up
| \   slide down
| h   hammer-on
| p   pull-off
| ~   vibrato
| +   harmonic
| x   Mute note
| b   Bend
| pb  Pre-bend
| br  Bend release
| pbr Pre-bend release
| brb Bend release bend

************************************
            
Tabs too difficult? Try these video lessons and learn fast.


comments powered by Disqus
↑ Back to top | Tablatures and chords are parodies/interpretations of the original songs. You may use it for private study, scholarship, research or language learning purposes only