» » »

Let's Do Everything For The First Time Forever Bass tabs (ver.1)

Artists:  A B C D E F G H I J K L M N O P Q R S T U V W X Y Z # 

Let's Do Everything For The First Time Forever Bass tabs (ver.1)

Of Montreal
Rating:
0/5 (0 votes)

Tabs too difficult? Try these video lessons and learn fast.
                Artist/Band: of Montreal
Label: Kindercore Records

Tuning: (Standard) E A D G
   
Key: ~~ - Let Ring
     /  - Slide to Fret

G|---------------------------------------------------------------------------|
D|------------------------------12-----------12-12-12-11-9----13-11-12/9-----|
A|-7------7---7-5-8-8-9-9-12-12----9--7--7/9---------------12------------9-7-|x 2
E|---9-10---7----------------------------------------------------------------|

0:18 - 0:50

G|-----------------------------------------------------------------------------|
D|------------------------5-5-4-4----------------------------------------------|
A|--------5-5-5-5-7-7-7-7---------7-7-9~--7-5-----5-7~---7---------5-8---8-----|
E|-5-5-5-5------------------------------------5-7------7---7-0-5-8-----8---8-1-|

0:50 - 1:10

G|---------------------------------------------------------------------------|
D|------------------------------12-----------12-12-12-11-9----13-11-12/9-----|
A|-7------7---7-5-8-8-9-9-12-12----9--7--7/9---------------12------------9-7-|x 2
E|---9-10---7----------------------------------------------------------------|

1:10 - 1:42

G|-----------------------------------------------------------------------------|
D|------------------------5-5-4-4----------------------------------------------|
A|--------5-5-5-5-7-7-7-7---------7-7-9~--7-5-----5-7~---7---------5-8---8-----|
E|-5-5-5-5------------------------------------5-7------7---7-0-5-8-----8---8-1-|

1:42 - 2:02

G|-------------------------------------------------------------------------------------------|
D|------------------------5-5-4-4------------------------------------------------------5/8-7-|
A|--------5-5-5-5-7-7-7-7---------7-7-8-9~--7-5-----5-7~--7---------5-8---8--------4-7-------|
E|-5-5-5-5------------------------------------5-7-------7---7-0-5-8-----8---8-1--5-----------|

2:03 - 2:25

G|-----6/4---7~~-|
D|---7-----7-----|
A|---------------|
E|-5-------------|

2:25 - 2:40
            
Tabs too difficult? Try these video lessons and learn fast.




comments powered by Disqus
↑ Back to top | Tablatures and chords are parodies/interpretations of the original songs. You may use it for private study, scholarship, research or language learning purposes only