» » »

Silver Rain Tabs (ver.1)

Artists:  A B C D E F G H I J K L M N O P Q R S T U V W X Y Z # 

Silver Rain Tabs (ver.1)

Of The Wand And The Moon
Rating:
5/5 (1 vote)

Tabs too difficult? Try these video lessons and learn fast.
                Band/Song: Of The Wand And The Moon - Silver Rain


Tuning: Half-Step Down

Verse

      ^    ^  v    v  ^  v     ^    ^  v    v  ^  v   
      Q    E  Q    E  E  E     Q    E  Q    E  E  E   
D#||--0----0----------0-----|--0----0----------0-----|
A#||--0----0--0----0--0--0--|--0----0--0----0--0--0--|
F#||--2----2--0----0--2--0--|--2----2--0----0--2--0--|
C#||--2----2--2----2--2--2--|--2----2--2----2--2--2--|
G#||--2----2--2----2--2--2--|--2----2--2----2--2--2--|
D#||--0----0--0----0--0--0--|--0----0--0----0--0--0--|


  ^    ^  v  ^    v  ^     ^    ^  v    v  ^  v   
  Q    E  E  Q    E  E     Q    E  Q    E  E  E   
--0----------0----------|--0----0----------0-----|
--1----1--1--1----1--1--|--0----0--0----0--0--0--|
--0----0--0--2----2--2--|--2----2--0----0--2--0--|
--2----2--2--2----2--2--|--2----2--2----2--2--2--|
--3----3--3--0----0--0--|--2----2--2----2--2--2--|
------------------------|--0----0--0----0--0--0--|

Chorus

  ^    ^  v    v  ^  v     ^    ^  v    v  ^  v   
  Q    E  Q    E  E  E     Q    E  Q    E  E  E   
--0-------0-------0-----|--0-------0-------0-----|
--3----3--3----3--3--3--|--1----1--1----1--1--1--|
--2----2--2----2--2--2--|--2----2--2----2--2--2--|
--0----0--0----0--0--0--|--2----2--2----2--2--2--|
--0----0--0----0--0--0--|--0----0--0----0--0--0--|
------------------------|------------------------|


  ^    ^  v    v  ^  v     ^    ^  v    v  ^  v    
  Q    E  Q    E  E  E     Q    E  Q    E  E  E    
--0-------0-------0-----|------------------------||
--1----1--1----1--1--1--|--0-------0-------0-----||
--0----0--0----0--0--0--|--0----0--0----0--0--0--||
--2----2--2----2--2--2--|--0----0--0----0--0--0--||
--3----3--3----3--3--3--|--2----2--2----2--2--2--||
------------------------|--3----3--3----3--3--3--||





Duration Legend
---------------
Q - quarter
E - 8th


Tablature Legend
----------------
^ - brush up
v - brush down
            
Tabs too difficult? Try these video lessons and learn fast.


comments powered by Disqus
↑ Back to top | Tablatures and chords are parodies/interpretations of the original songs. You may use it for private study, scholarship, research or language learning purposes only