» » »

0 Equals 2 Tabs (ver.1)

Artists:  A B C D E F G H I J K L M N O P Q R S T U V W X Y Z # 

0 Equals 2 Tabs (ver.1)

Omar A Rodriguez-lopez
Rating:
4/5 (4 votes)

Tabs too difficult? Try these video lessons and learn fast.
                Tuning: Standard


Intro - Acoustic              x3
|------------------------------|---------------------------|
|------------------------------|---------------------------|
|------------------------------|---------------------------|
|-0-2-4--------5--0-2--2-0-----|-0-2-4---------------------|
|-------0---0--------------3-2-|-------0-------3----3------|
|------------------------------|---------1--1-----1----1---|




  Acoustic 1                  x3
|------------------------------|---------------------------|
|------------------------------|---------------------------|
|------------------------------|---------------------------|
|-0-2-4--------5--0-2--2-0-----|-0-2-4---------------------|
|-------0---0--------------3-2-|-------0-------3----3------|
|------------------------------|---------1--1-----1----1---|
|                               
| Acoustic 2                  x3
|------------------------------|---------------------------|
|--------------5---------------|---------------------------|
|--------------0---------------|---------------------------|
|-10-9-7-------------12-10-9-7-|-10-9-7--------------------|
|--------7---7-----------------|-------------3---3---------|
|------------------------------|--------1--1---1---1---1---|





  Acoustic 1                  x3
|------------------------------|----------------------------------|
|------------------------------|----------------------------------|
|------------------------------|--------------------------3-3-3-3-|
|-0-2-4--------5--0-2--2-0-----|-0-2-4--------------------3-3-3-3-|
|-------0---0--------------3-2-|-------0-------3----3-----3-3-3-3-|
|------------------------------|---------1--1-----1----1----------|
|                               
| Acoustic 2                  x3
|------------------------------|----------------------------------|
|--------------5---------------|----------------------------------|
|--------------0---------------|----------------------------------|
|-10-9-7-------------12-10-9-7-|-10-9-7-------------------3-3-3-3-|
|--------7---7-----------------|-------------3---3--------3-3-3-3-|
|------------------------------|--------1--1---1---1---1--1-1-1-1-|
|
| Electric Guitar
|(rest two bars before this)
|------------------------------|----------------------------------|
|------------------------------|----------------------------------|
|------------------------------|----------------------------------|
|-----------------------14--12-|--10--12--10~---------------------|
|------------------------------|----------------------------------|
|------------------------------|----------------------------------|



As the song progresses,
Acoustic 2 changes some but you should be able to understand it.

Repeat above with these Electric Guitar parts in the same locations.
|---------------------------|----------------------|---------------------|
|---------------------------|----------------------|---------------------|
|-9--9-12--12--12-----------|----------------------|-9--9-12/14----------|
|------------------12--10~--|-14--12--10--12--10~--|-------------12--10~-|
|---------------------------|----------------------|---------------------|
|---------------------------|----------------------|---------------------|

|----------------------|----------------------|-------------------|
|----------------------|----------------------|-------------------|
|----------------------|----------------------|-14-12-------------|
|-14-12-14-12--12--10~-|-14--12--10--12--10~--|--------12h14--12~-|
|----------------------|----------------------|-------------------|
|----------------------|----------------------|-------------------|

            /(octave/chord effect)\
|----------------------|--------------|---------------------|
|----------------------|--------------|---------------------|
|----------------------|-9--9-12------|---------------------|
|-14--12--10--12--10~--|----------12~-|-14--12--10--12--10~-|
|----------------------|--------------|---------------------|
|----------------------|--------------|---------------------|

Electric Guitar (2:50) - Acoustics Fade
(r) = repeat as needed
|------------15------------------19-----|
|-15-17--(r)----15-12--(r)-17-19----(r)-|
|---------------------------------------|
|---------------------------------------|
|---------------------------------------|
|---------------------------------------|

Just mess with stuff like that for a while. Acoustics repeat their parts.
Then it ends! I like this song a lot. For those of you that don't have it,
I think it's exclusive to iTunes but you can probably find it on
            
Tabs too difficult? Try these video lessons and learn fast.




comments powered by Disqus
↑ Back to top | Tablatures and chords are parodies/interpretations of the original songs. You may use it for private study, scholarship, research or language learning purposes only