» » »

Jueves Tabs (ver.1)

Artists:  A B C D E F G H I J K L M N O P Q R S T U V W X Y Z # 

Jueves Tabs (ver.1)

Omar A Rodriguez-lopez
Rating:
5/5 (1 vote)

Tabs too difficult? Try these video lessons and learn fast.
                Found this tab on the comatorium, i thought it was pretty cool and wanted more people to see it.


Intro:

(repeat this first part 4 times)
----------7-----------7--------7-------------------------------------------------------|
-------5-------5--------5---------5---------------8--------------------5---------------|
----5-------------5--------5---------5---------5-----5-------------5-----5-------------|
-7--------------------------------------------7-----------7-------5-----------5--------|
--------------------------------------------8-------------------7----------------------|
---------------------------------------------------------------------------------------|

(played once)
-----------------------------------------------------------------------------------------|
--------------5--------------------5---------------------8--------------------5----------|
-----------5-----5-------------5-----5---------------5-----5-------------5-----5---------|
-------7-----------7-------5-----------5---------7-----------7-------5-----------5-------|
---8-------------------7----------------------8-------------------7----------------------|
-----------------------------------------------------------------------------------------|

-----------------------------------------------------------------------------------------|
--------------0h2--0--------------------5------------------------------------------------|
-----------5-------------------------5-----5---------------------------------------------|
-------7-------------------------5-----------5-------------------------------------------|
---8------------------------7--------------------5-------3-------2-----------------------|
------------------------------------------------------------------------------3----------|

Verses:

-------------------------------------------------------------------------|
----------1--------------1-------1------------1---------------0----------|
-------2-----2-------2--------2------------2----2----------2----2--------|
----2----------2-------------------------2---------2-----2---------2-----|
-0----------------2--------3---------------------------------------------|
--------------------------------------1-----------------0----------------|

Chorus:

"No Es Facil Recordar Promesas"
---------------------------------------------------------------------------------------|
----------1--------------------1---------------------1---------0--------3--------------|
-------2-----2-------------2------2--------------2-----2--------2---------2------------|
----2----------2--------2-----------2---------2----------2---------2---------2---------|
------------------------------------------0--------------------------------------------|
--1----------------3-------------------------------------------------------------------|

"En Donde Estare" |Played last time only
------------------------------------------------------------------------------------|------------|
----------1--------------------1---------------------0---------0--------0----------|-------------|
-------2-----2-------------2------2--------------2-----2--------2---------2--------|-------------|
----2----------2---------2-----------2---------2----------2---------2---------2----|-------------|
------------------------------------------0-----------------------------------------|---------0--|
--1----------------3----------------------------------------------------------------|--0--3------|


"No Es Vertigo..."
----------7-----------7--------7-------------------------------------------------------|
-------5-------5--------5---------5---------------8--------------------5---------------|
----5-------------5--------5---------5---------5-----5-------------5-----5-------------|
-7--------------------------------------------7-----------7-------5-----------5--------|
--------------------------------------------8-------------------7----------------------|
---------------------------------------------------------------------------------------|

"No Quiero Mirar..."
-----------------------------------------------------------------------------------------|
--------------8--------------------5---------------------8--------------------5----------|
-----------5-----5-------------5-----5---------------5-----5-------------5-----5---------|
-------7-----------7-------5-----------5---------7-----------7-------5-----------5-------|
---8-------------------7----------------------8-------------------7----------------------|
-----------------------------------------------------------------------------------------|

---------------------------------------------------------------------------------------|
---------------8------------------------5--------------------5---------------5---------|
-----------5------5------------------5-----5-------------------5------------5----------|
-------7-------------7-----------5-----------5-------------------5---------------------|
---8------------------------7--------------------5-------3--------------2--------------|
------------------------------------------------------------------------------------3--|


Bridge is simple power chords... I'm sure you can figure it out, but I'm not sure about the solo
            
Tabs too difficult? Try these video lessons and learn fast.


comments powered by Disqus
↑ Back to top | Tablatures and chords are parodies/interpretations of the original songs. You may use it for private study, scholarship, research or language learning purposes only