» » »

Puny Humans Tabs (ver.2)

Artists:  A B C D E F G H I J K L M N O P Q R S T U V W X Y Z # 

Puny Humans Tabs (ver.2)

Omar A Rodriguez-lopez
Rating:
0/5 (0 votes)
Tabs too difficult? Try these video lessons and learn fast.
                -------------------------------------------------------------------------------
                             Puny Humans - Omar Rodriguez-Lopez
-------------------------------------------------------------------------------

Tuning:Standard

e|-----------------------------------3333-----------------3333----------------|
B|-----------------------------------5555-4h5p0-----------5555-4h5p0----------|
G|------5------6--3--5---------------4444------4h5p0-3-00-4444------4h5p0-3-0-|
D|5--3-3---3--3--5--3---3-----------------------------------------------------|
A|--5-----4--5---------4---3----3---------------------------------------------|
E|------------------------4--3h4-3--------------------------------------------|

I won't get tourettes if you don't get tourettes
e|------2nd Guitar-----------------------------3rd Guitar-18-----------------|
B|19-17-15-17-15-12-15-12------------------------------------21-18-20--------|
G|------------------------14-12-14-16-14---16--------------------------------|
D|---------------------------------------------------------------------------|
A|---------------------------------------------------------------------------|
E|---------------------------------------------------------------------------|

e|--Mess Around With---------------------------------------------------------|
B|-------5p0----------5p0----------5p0---------5555----5-----------5---------|
G|-00-6p0---4h5-00-6p0---4h5-00-6p0---4h5-00-6-0---00-6-4h5h6--00-6-4h5h6----|
D|---------------------------------------------------------------------------|
A|---------------------------------------------------------------------------|
E|---------------------------------------------------------------------------|

e|-----------------------------2nd Guitar------------------------------------|
B|-13-10-12----------12-10---------------------------------------------------|
G|---------12-9-11-12--------------------------------------------------------|
D|------------------------------10-7-9-----------9-7-------------------------|
A|-------------------------------------10-7-9-10-----------------------------|
E|---------------------------------------------------------------------------|

Any note that's on either of the E strings I had to guess because mine are broken off so 
you may or may not have to correct something

************************************

| /   slide up
            
Tabs too difficult? Try these video lessons and learn fast.


comments powered by Disqus
↑ Back to top | Tablatures and chords are parodies/interpretations of the original songs. You may use it for private study, scholarship, research or language learning purposes only