» » »

Der Strom Bass tabs (ver.1)

Artists:  A B C D E F G H I J K L M N O P Q R S T U V W X Y Z # 

Der Strom Bass tabs (ver.1)

Oomph!
Rating:
0/5 (0 votes)

Tabs too difficult? Try these video lessons and learn fast.
                Intro/Chorus
G|-------------------|
D|-------------------|
A|-------------------|x4
D|---8---6---1---4---|

Verse
G|--------------|
D|--------------|
A|--------------|x4
D|--8---6---1---|

Chorus
G|-------------------|
D|-------------------|
A|-------------------|x4
D|---8---6---1---4---|

Verse
G|--------------|
D|--------------|
A|--------------|x4
D|--8---6---1---|

Chorus
G|-------------------|
D|-------------------|
A|-------------------|x3
D|---8---6---1---4---|

G|-------------------|
D|-------------------|
A|-------------------|
D|---8---6---1-------|

Bridge
G|---------------------------------------------|
D|---------------------------------------------|
A|---------------------------------------------|
D|-111111-1-1-1-1-1-1-3-4-4444-4-4-4-4-4-4-4~--|

G|-----------------------------------|
D|-----------------------------------|
A|-----------------------------------|
D|-111111-1-1-1-1-1-1-3-4-4444-4-4---|

G|----------------------|
D|----------------------|
A|----------------------|
D|--1-1-1-1-1-1-1-1-----|

Chorus
G|-------------------|
D|-------------------|
A|-------------------|x7
D|---8---6---1---4---|

G|-------------------|
D|-------------------|
A|-------------------|
D|---8---6---1-------|
            
Tabs too difficult? Try these video lessons and learn fast.




comments powered by Disqus
↑ Back to top | Tablatures and chords are parodies/interpretations of the original songs. You may use it for private study, scholarship, research or language learning purposes only