» » »

One Of These Days Bass tabs (ver.2)

Artists:  A B C D E F G H I J K L M N O P Q R S T U V W X Y Z # 

One Of These Days Bass tabs (ver.2)

Operation Ivy
Rating:
0/5 (0 votes)
Tabs too difficult? Try these video lessons and learn fast.
                Verse  x3

G|-----------------|
D|-----------------|
A|-2/3--2/3---4-77-|
E|----------5------|

Chorus x2

G|-----------------|
D|-----------------|
A|-555----------77-|
E|-----333-5555----|

on the second time through the second verse you play this

G|-----------3/5-----------|
D|---------------3/5-------|
A|-2/3--2/3----------3/5---|
E|-----------------------5-|

solo x4

G|-----------------------------------------------|
D|-----5-4-5-77-55-44-77-------------------------|
A|-555---------------------555----------44-77-44-|
E|-----------------------------3-2-3-55----------|

Outro x4

G|---------------------|
D|---------------------|
A|-555--------44-77-44-|
E|-----333-55----------|
            
Tabs too difficult? Try these video lessons and learn fast.


comments powered by Disqus
↑ Back to top | Tablatures and chords are parodies/interpretations of the original songs. You may use it for private study, scholarship, research or language learning purposes only