» » »

Unity Bass tabs (ver.3)

Artists:  A B C D E F G H I J K L M N O P Q R S T U V W X Y Z # 

Unity Bass tabs (ver.3)

Operation Ivy
Rating:
0/5 (0 votes)

Tabs too difficult? Try these video lessons and learn fast.
                Unity by Operation Ivy

Please Note: This tab is the only correct bass tab. The other tabs are the guitar 
tab turned into bass notes, which is incorrect.



Intro
|--------------------------------------------------------|
|--------------------------------------------------------|
|-----------------5------------------------------------5-|
|--5---------------------------------0-------------------|


|------------------------------------------------------|
|------------------------------------------------------|
|----------------5----------------0~----------------5~-|
|5-----------------------------------------------------|


Chorus (x2)
|------------------------------------------------------|
|------------------------------------------------------|
|---------------5--5--5------------------------5--5--5-|
|-5---5--5--5------------------0---0--0--0-------------|


Verse (x2)
|----------------------------------------------------|
|--------------------7----------------4444-----------|
|--------4--7--5555----5---------5--7--------7--5----|
|-5---5-----------------------0---0------------------|

Bridge (x4)
|------------------------------------------------------|
|------------------------------------------------------|
|---------------5-5-5---------0---0-0-0---------5-5-5--|
|-5---5-5-5--------------------------------------------|

Thanks for using the correct tab. Be sure to rate this tab.
            
Tabs too difficult? Try these video lessons and learn fast.


comments powered by Disqus
↑ Back to top | Tablatures and chords are parodies/interpretations of the original songs. You may use it for private study, scholarship, research or language learning purposes only