>
 >
Fuzzy Dice

Fuzzy Dice Bass Tabs

Optimus Rhyme - Fuzzy Dice chords, tabs, tablatures, lyrics

Guitar lessons | Add/correct | Request | Top 50 tabs Artists:  A B C D E F G H I J K L M N O P Q R S T U V W X Y Z 0-9

Fuzzy Dice Bass Tabs – Optimus Rhyme

CD, Sheet music, Poster

Do you like Fuzzy Dice? Share with your friends now
Bass TabsTabsTabs v2


Chorus

G|-----------------------------------5----5------7--|
D|------5----5------5--------------5----------------| (x2)
A|----5---------5-----5----------3-----------5------|
E|--3-------------------3---------------------------|

G|------------------5-------7----|
D|------5---------5-------7------| (x2)
A|----5---------3--------5-------|
E|--3----------------------------|

G|-----------------------------------5----5------7--|
D|------5----5------5--------------5----------------| (x2)
A|----5---------5-----5----------3-----------5------|
E|--3-------------------3---------------------------|


Bridge (Not Played, But Here Are The Notes)

G|----------------------------|
D|----------------------------|
A|---------------3------------|
E|--3----5--6---------5-6--3--|


Verse
                                                  (Every Other Time)
G|----------3----3----------------------3----653--|--6-5-3--|
D|-----5------5----5-3---3--5------5------5-------|---------| (x7)
A|-------5-------------5-------------5------------|---------|
E|--3---------------------------3-----------------|---------|

G|----------3----3----------------------3----653--|--6-5-3--|
D|-----5------5----5-3---3--5------5------5-------|---------|
A|-------5-------------5-------------5------------|---------|
E|--3---------------------------3-----------------|---------|


Break

G|--------/10-----------------/10----------|
D|-----------------------------------------|
A|----3-5-------5---------3-5-------5------|
E|--3--------------3----3-------------3-3--|

G|--------/10-----------------/10---------------|
D|----------------------------------------------|
A|----3-5-------5---------3-5-------5-----------|
E|--3--------------3----3-------------3-3----3--|


Verse

G|----------3----653--|
D|-----5------5-------|
A|-------5------------|
E|--3-----------------|

G|----------3----3----------------------3----6-5-3--|
D|-----5------5----5-3---3--5------5------5---------|
A|-------5-------------5-------------5--------------|
E|--3---------------------------3-------------------|


Chorus

G|-----------------------------------5----5------7--|
D|------5----5------5--------------5----------------| (x2)
A|----5---------5-----5----------3-----------5------|
E|--3-------------------3---------------------------|

G|------------------5-------7----|
D|------5---------5-------7------| (x2)
A|----5---------3--------5-------|
E|--3----------------------------|

G|-----------------------------------5----5------7--|
D|------5----5------5--------------5----------------| (x2)
A|----5---------5-----5----------3-----------5------|
E|--3-------------------3---------------------------|


Bridge (Not Played, But Here Are The Notes)

G|----------------------------|
D|----------------------------|
A|---------------3------------|
E|--3----5--6---------5-6--3--|


Verse
                                                  (Every Other Time)
G|----------3----3----------------------3----653--|--6-5-3--|
D|-----5------5----5-3---3--5------5------5-------|---------| (x7)
A|-------5-------------5-------------5------------|---------|
E|--3---------------------------3-----------------|---------|

G|----------3----3-----------------------|
D|-----5------5----5-3---3--5------------|
A|-------5-------------5-----------------|
E|--3--------------------------3-3----3--|


Break

G|--------/10-----------------/10----------|
D|-----------------------------------------|
A|----3-5-------5---------3-5-------5------|
E|--3--------------3----3-------------3-3--|

G|--------/10-----------------/10---------------|
D|----------------------------------------------|
A|----3-5-------5---------3-5-------5-----------|
E|--3--------------3----3-------------3-3----3--|


Verse
                                                  (Every Other Time)
G|----------3----3----------------------3----653--|
D|-----5------5----5-3---3--5------5------5-------|
A|-------5-------------5-------------5------------|
E|--3---------------------------3-----------------|

G|----------3----3----------------------3----6-5--|
D|-----5------5----5-3---3--5------5------5-------|
A|-------5-------------5-------------5------------|
E|--3---------------------------3-----------------|


Outro

G|--------------------------|
D|-------3------3------3----|
A|--1------1------3---------|
E|-----------------------1--|

G|----------------------------|
D|--3------3------3------3----| (x3)
A|----1------1------3---------|
E|-------------------------1--|

G|---------------|
D|---------------| (x4)
A|--1/13--1/13~--|
E|---------------|

G|--------------------------|
D|-------3------3------3----|
A|--1------1------3---------|
E|-----------------------1--|

G|----------------------------|
D|--3------3------3------3----| (x7)
A|----1------1------3---------|
E|-------------------------1--|

G|------------|
D|----3-------|
A|--3------1--|
E|-------1----|



The bass has a very low tone, but I'm 90% sure that this is how the song is played, but 
I may not be totally correct.

Thank you for reading, and enjoy!





Comments


Popular Optimus Rhyme tabs & chords
Autobeat Airbus Tabs
Cybernetic Circuits Tabs
Dermato Fibro Sarcoma Protuberance Tabs
Fuzzy Dice 1 Tabs
I Heart Pubotcs Tabs
Obey The Moderator Tabs
Organix Tabs
Ping Pong Song Tabs
Powder Egg Blue Hatch Tabs
Sick Day Tabs


Song lyrics



↑ Back to top | Tablatures and chords are parodies/interpretations of the original songs. You may use it for private study, scholarship, research or language learning purposes only
© 2014 AZChords.com Contact us | Privacy policy | DMCA | Add/correct tabs | Request tabs | Top 50 tabs