» » »

Amiguito Tabs (ver.1)

Artists:  A B C D E F G H I J K L M N O P Q R S T U V W X Y Z # 

Amiguito Tabs (ver.1)

Panda
Rating:
0/5 (0 votes)

Tabs too difficult? Try these video lessons and learn fast.
                ESTA ROLA ESTA CHIDA DIS FRUNTENLA
1er guitarra: (2 veces)
-----------------1-1-1-1-1-2-2-1-1-1-----
-2-2-2-2-4-2-1-2---------------------2---
-----------------------------------------
-----------------------------------------
-----------------------------------------
-----------------------------------------

-----------------------------------------
-2-2-2-2-4-2-1-2-3-3-3-3-3-1-1-1-1-1-2---
-----------------------------------------
-----------------------------------------
-----------------------------------------
2da guitarra: (2 veces)
-----------------------------------------
-----------------------------------------
-----------------------------------------
-11-11-11-11-11-11-8-8-8-6-6-6-6-6-------
-11—11—11-11-11-11-8-8-8-6-6-6-6-6-------
-9—-9—-9--8--8--8--6-6-6-4-4-4-4-4-------

la parte del verso es igual a la 2da guitarra  (se hace tapando las cuerdas )
 
la parte antes del coro es asi:
1er guitarra
-1-1-1-1-1-1--------------------------------
-------------2-2-2-2-4-4/6-2---4-4/6-4-2----
--------------------------------------------
---------------------------------------------
---------------------------------------------
---------------------------------------------


y el coro es asi: (2 veces)
----------------------------------------------
----------------------------------------------
--------------------------6-------------------
-11----6-----4------6-----6-------------------                              -11x5—-6-x5--4-x5---6-x5--4-------------------
-9-----4-----2------4-------------------------

Esta es la parte final y empieza con el intro
Y el verso es tapando las cuerdas
---------------------------------------------
---------------------------------------------
---------------------------------------------
---------------------------------------------
-11-11-11-11-11-11--8-8-8--6-6-6-------------
-9--9--9--8--8--8---6-6-6--4-4-4-------------
            
Tabs too difficult? Try these video lessons and learn fast.


comments powered by Disqus
↑ Back to top | Tablatures and chords are parodies/interpretations of the original songs. You may use it for private study, scholarship, research or language learning purposes only