» » »

Color Negro Pasion Bass tabs (ver.1)

Artists:  A B C D E F G H I J K L M N O P Q R S T U V W X Y Z # 

Color Negro Pasion Bass tabs (ver.1)

Panda
Rating:
0/5 (0 votes)

Tabs too difficult? Try these video lessons and learn fast.
                intro:
G]---------------------------------------------|
D]4-44-0-3-33-0--------------------------------|      X4
A]-------------6-66-0-4-444-0-2-22222222-------|
E]---------------------------------------------|

verso:
G]----------------------------------------------------|
D]44444444-6-444444444444-----------------------------|
A]-----------------------666666666666-22222222-444444-|    X2
E]----------------------------------------------------|

G]------------------------|   G]-------------------------|
D]------------------------|   D]-------------------------|
A]66666666-11111111-222222|   A]66666666-11111111-444444-|
E]------------------------|   E]-------------------------|

coro
G]--------------------------------------------|
D]4-44-0-3-33-0-------------------------------|    X6
A]-------------6-66-0-4-444-0-2-2222-4444-----|
E]--------------------------------------------|

:DD
            
Tabs too difficult? Try these video lessons and learn fast.




comments powered by Disqus
↑ Back to top | Tablatures and chords are parodies/interpretations of the original songs. You may use it for private study, scholarship, research or language learning purposes only