» » »

Fascinante Tabs (ver.2)

Artists:  A B C D E F G H I J K L M N O P Q R S T U V W X Y Z # 

Fascinante Tabs (ver.2)

Panda
Rating:
0/5 (0 votes)

Tabs too difficult? Try these video lessons and learn fast.
                q paso pos es el tab q me pidieron pos son como las milochomiloras y pos weeba jeje 
xD

intro(casi no me acuerdo de esto )

|---15----10---12----12---------------|
|------12----8----12----8---12\10\8\10|
|-------------------------------------|
|-------------------------------------|x2
|-------------------------------------|
|-------------------------------------|



|---1414--14----15-1515-------------|
|-12----12---12---------12----12----|
|--------------------------14----14-|
|-----------------------------------|
|-----------------------------------|
|-----------------------------------|

pm........................................
|----------------------------------------|
|----------------------------------------|
|----------------------555--555--777--777|
|--222--222--555--555--555--555--777--777|
|--222--222--555--555--333--333--555--555|
|--000--000--333--333--------------------|


|-----------------------------------------|
|-----------------------------------------|
|-----------------------4444--5555---7777-|
|xxxx--55/7-55/7--4444--4444--5555xx-7777-|
|xxxx--55/7-55/7--4444--2222--3333xx-5555-|
|xxxx--33/5-33/5--2222------------xx------|

solo

|----7-------------------------7-----------------|
|-888-8-7-8-----------9-88-888---9-88----5-------|
|-------------7/9/7----------------------5-------|
|----------------------------------------3-------|
|------------------------------------------------|
|------------------------------------------------|


|--------------------------------|
|--------------------------------|
|------------------555555--777777|
|--222222--555555--555555--777777|
|--222222--555555--333333--555555|
|--000000--333333----------------|






duads dejen comentario 
            
Tabs too difficult? Try these video lessons and learn fast.




comments powered by Disqus
↑ Back to top | Tablatures and chords are parodies/interpretations of the original songs. You may use it for private study, scholarship, research or language learning purposes only