>
 >
La Vida En El Barandal

La Vida En El Barandal Guitar Tabs

Panda - La Vida En El Barandal chords, tabs, tablatures, lyrics

Guitar lessons | Add/correct | Request | Top 50 tabs Artists:  A B C D E F G H I J K L M N O P Q R S T U V W X Y Z 0-9

La Vida En El Barandal Guitar Tabs – Panda

CD, Sheet music, Poster

Do you like La Vida En El Barandal? Share with your friends now
Tabs
              PM = *            Afinación en mi standard E A D G B e
Intro   guitarra 2                     Abajo está la guitarra 1.

1.- |-------------------------------------------------------------|
2.- |-------------------------------------------------------------|
3.- |-------------------------------------------------------------|
4.- |-------------------------------------------------------------|
5.- |-6--8-8-8-8-8-8--6--8-8-8-8-8-8--6-8-8-8-8-8-8--6-8-8-8-8-8--|
6.- |-------------------------------------------------------------|
      *  * * * * * *  *  * * * * * *  * * * * * * *  *

1.- |-------------------------------------------------------------|
2.- |-------------------------------------------------------------|
3.- |--4-4-4-4-4---6-6-6-6-6---8-8-8-8-8---10-10-10-10-10---------|
4.- |--4-4-4-4-4---6-6-6-6-6---8-8-8-8-8---10-10-10-10-10---------|
5.- |--2-2-2-2-2---4-4-4-4-4---6-6-6-6-6---9--9--9--9--9----------|
6.- |-------------------------------------------------------------| x2

Verso (Qué más habrá por creer)

1.- |-------------------------------------------------------------|
2.- |-------------------------------------------------------------|
3.- |--4-4-4-4-4---6-6-6-6-6---8-8-8-8-8---10-10-10-10-10---------|
4.- |--4-4-4-4-4---6-6-6-6-6---8-8-8-8-8---10-10-10-10-10---------|
5.- |--2-2-2-2-2---4-4-4-4-4---6-6-6-6-6---9--9--9--9--9----------|
6.- |-------------------------------------------------------------|
       * * * * *   * * * * *   * * * * *   *  *  *  *  *

1.- |-------------------------------------------------------------|
2.- |-------------------------------------------------------------|
3.- |--4-4-4-4-4---6-6-6-6-6---8-8-8-8-8---8-8-8-8--10------------|
4.- |--4-4-4-4-4---6-6-6-6-6---8-8-8-8-8---8-8-8-8--10------------|
5.- |--2-2-2-2-2---4-4-4-4-4---6-6-6-6-6---6-6-6-6--9-------------|
6.- |-------------------------------------------------------------|
       * * * * *   * * * * *   

(La religión sustituye al pensar)
1.- |-------------------------------------------------------------|
2.- |-------------------------------------------------------------|
3.- |--4--4--44---6--6--66-6---8--8--88---10--10--1010-10---------|
4.- |--4--4--44---6--6--66-6---8--8--88---10--10--1010-10---------|  
5.- |--2--2--22---4--4--44-4---6--6--66---9---9---9-9--9----------|   
6.- |-------------------------------------------------------------| x2            
La segunda termina con 8       
                       6
                       6

Pre-coro (Nunca más, lamentar)

1.- |-------------------------------------------------------------|
2.- |-------------------------------------------------------------|
3.- |-6---6-6-6-6-6-6-6-6-6-6-6-6---8---8-8-8-8-8-8-8-8-8-8-8-8---|
4.- |-6---6-6-6-6-6-6-6-6-6-6-6-6---8---8-8-8-8-8-8-8-8-8-8-8-8---|
5.- |-4---4-4-4-4-4-4-4-4-4-4-4-4---6---6-6-6-6-6-6-6-6-6-6-6-6---|
6.- |-------------------------------------------------------------|
          * * * * * * * * *             * * * * * * * * 

Coro (Lo bueno de que el pasado sea ayer)

1.- |-------------------------------------------------------------|
2.- |-------------------------------------------------------------|
3.- |-4-4-4-4-4-4---6-6-6-6-6-6---------------8-8-8-8-8-8---------|
4.- |-4-4-4-4-4-4---6-6-6-6-6-6---8-8-8-8-8---8-8-8-8-8-8---------|
5.- |-2-2-2-2-2-2---4-4-4-4-4-4---8-8-8-8-8---6-6-6-6-6-6---------|
6.- |-----------------------------6-6-6-6-6-----------------------|

1.- |-------------------------------------------------------------|
2.- |-------------------------------------------------------------|
3.- |-4-4-4-4-4-4---6-6-6-6-6-6---8-8-8-8-8-8-8-8-8-8-8-8---------|
4.- |-4-4-4-4-4-4---6-6-6-6-6-6---8-8-8-8-8-8-8-8-8-8-8-8---------|
5.- |-2-2-2-2-2-2---4-4-4-4-4-4---6-6-6-6-6-6-6-6-6-6-6-6---------|
6.- |-------------------------------------------------------------|

1.- |-------------------------------------------------------------|
2.- |-------------------------------------------------------------|
3.- |-4-4-4-4-4-4---6-6-6-6-6-6---------------8-8-8-8-8-8---------|
4.- |-4-4-4-4-4-4---6-6-6-6-6-6---8-8-8-8-8---8-8-8-8-8-8---------|
5.- |-2-2-2-2-2-2---4-4-4-4-4-4---8-8-8-8-8---6-6-6-6-6-6---------|
6.- |-----------------------------6-6-6-6-6-----------------------|

1.- |--------------------------------------|
2.- |--------------------------------------|
3.- |-4-4-4-4-4-4---6-6-6-6-6-6------------|
4.- |-4-4-4-4-4-4---6-6-6-6-6-6-- ---------|
5.- |-2-2-2-2-2-2---4-4-4-4-4-4------------|
6.- |--------------------------------------|

 (atraaaas)
1.- |-------------------------------------------------------------|
2.- |-------------------------------------------------------------|
3.- |-3-3--4-4----8---6-6----3-3--4-4----10---11--11--------------|
4.- |-3-3--4-4----8---6-6----3-3--4-4----10---11--11--------------|
5.- |-1-1--2-2----6---4-4----1-1--2-2----8----9---9---------------|
6.- |-------------------------------------------------------------| x2


Verso 2 (Qué más habrá por creer)
1.- |-----------------------------------------------------------------|
2.- |-----------------------------------------------------------------|
3.- |-----------------------------------------------------------------|
4.- |-9-9-9-9-9-9-10-10-10-10-10-10-6-6-6-8-8-8-8-9-9-9-8-8-8-6-6-6---|
5.- |---------------------------------------------------------------9-|
6.- |-----------------------------------------------------------------| x2


 (La religión ha perdido valor)
1.- |-------------------------------------------------------------|
2.- |-------------------------------------------------------------|  
3.- |--4--4--44---6--6--66-6--------------------------------------| 
4.- |--4--4--44---6--6--66-6---6--6--88---9--8--66---4------------|             
5.- |--2--2--22---4--4--44-4---6--6--88---9--8--66---4------------|             
6.- |--------------------------4--4--66---7--6--44---2------------| x2

La segunda vez termina en 6
                          6
                          4

Coro (Lo bueno de que el pasado sea ayer)
1.- |-------------------------------------------------------------|
2.- |-------------------------------------------------------------|
3.- |-4-4-4-4-4-4---6-6-6-6-6-6---------------8-8-8-8-8-8---------|
4.- |-4-4-4-4-4-4---6-6-6-6-6-6---8-8-8-8-8---8-8-8-8-8-8---------|
5.- |-2-2-2-2-2-2---4-4-4-4-4-4---8-8-8-8-8---6-6-6-6-6-6---------|
6.- |-----------------------------6-6-6-6-6-----------------------|

1.- |-------------------------------------------------------------|
2.- |-------------------------------------------------------------|
3.- |-4-4-4-4-4-4---6-6-6-6-6-6---8-8-8-8-8-8-8-8-8-8-8-8---------|
4.- |-4-4-4-4-4-4---6-6-6-6-6-6---8-8-8-8-8-8-8-8-8-8-8-8---------|
5.- |-2-2-2-2-2-2---4-4-4-4-4-4---6-6-6-6-6-6-6-6-6-6-6-6---------|
6.- |-------------------------------------------------------------|

1.- |-------------------------------------------------------------|
2.- |-------------------------------------------------------------|
3.- |-4-4-4-4-4-4---6-6-6-6-6-6---------------8-8-8-8-8-8---------|
4.- |-4-4-4-4-4-4---6-6-6-6-6-6---8-8-8-8-8---8-8-8-8-8-8---------|
5.- |-2-2-2-2-2-2---4-4-4-4-4-4---8-8-8-8-8---6-6-6-6-6-6---------|
6.- |-----------------------------6-6-6-6-6-----------------------|

1.- |--------------------------------------|
2.- |--------------------------------------|
3.- |-4-4-4-4-4-4---6-6-6-6-6-6------------|
4.- |-4-4-4-4-4-4---6-6-6-6-6-6-- ---------|
5.- |-2-2-2-2-2-2---4-4-4-4-4-4------------|
6.- |--------------------------------------|

 (atraaaas)
1.- |-------------------------------------------------------------|
2.- |-------------------------------------------------------------|
3.- |-3-3--4-4----8---6-6----3-3--4-4----10---11--11--------------|
4.- |-3-3--4-4----8---6-6----3-3--4-4----10---11--11--------------|
5.- |-1-1--2-2----6---4-4----1-1--2-2----8----9---9---------------|
6.- |-------------------------------------------------------------| x2

Puente
1.- |-------------------------------------------------------------|
2.- |-------------------------------------------------------------|
3.- |-------------------------------------------------------------|
4.- |---------------------------------8-8-8-8-6-6-8-8-8-8-(x28)---|
5.- |-9-9-8-8-6-6-6-6-9-9-8-6-6--(x2)-----------------------------|
6.- |-------------------------------------------------------------|

Outro (En esto me he convertido)
1.- |-------------------------------------------------------------| 
2.- |-------------------------------------------------------------|  
3.- |--4-4-4-4-4---6-6-6-6-6---8-8-8-8-8---10-10-10-10-10---------|  
4.- |--4-4-4-4-4---6-6-6-6-6---8-8-8-8-8---10-10-10-10-10---------|            
5.- |--2-2-2-2-2---4-4-4-4-4---6-6-6-6-6---9--9--9--9--9----------|            
6.- |-------------------------------------------------------------| X4
La cuarta vez termina en 8
                         8
                         6






                 PM = *
Guitarra 1

Intro
1.- |-----------------------------11-9---------------------------------|
2.- |-9-11-(x8)----9-11-9-11-9-11------(x3)--9-11-9-11-9-12-11-12-11-9-|
3.- |------------------------------------------------------------------|
4.- |------------------------------------------------------------------|
5.- |------------------------------------------------------------------|
6.- |------------------------------------------------------------------|

Verso (Qué más habrá por creer)
------]
1.- |-------------------------------------------------------------|
2.- |-------------------------------------------------------------|
3.- |--4-4-4-4-4---6-6-6-6-6---8-8-8-8-8---10-10-10-10-10---------|
4.- |--4-4-4-4-4---6-6-6-6-6---8-8-8-8-8---10-10-10-10-10---------|
5.- |--2-2-2-2-2---4-4-4-4-4---6-6-6-6-6---9--9--9--9--9----------|
6.- |-------------------------------------------------------------|
       * * * * *   * * * * *   * * * * *   *  *  *  *  *

1.- |-----------------------------------------11-9-|
2.- |--------------------------9-11-9-11-9-11------|
3.- |--4-4-4-4-4---6-6-6-6-6-----------------------|
4.- |--4-4-4-4-4---6-6-6-6-6-----------------------| Desde a flecha
5.- |--2-2-2-2-2---4-4-4-4-4-----------------------|
6.- |----------------------------------------------| X2
       * * * * *   * * * * *  
 
Pre-coro (Nunca más, lamentar)
1.- |-------------------------------------------------------------|
2.- |-------------------------------------------------------------|
3.- |-6---6-6-6-6-6-6-6-6-6-6-6-6---8---8-8-8-8-8-8-8-8-8-8-8-8---|
4.- |-6---6-6-6-6-6-6-6-6-6-6-6-6---8---8-8-8-8-8-8-8-8-8-8-8-8---|
5.- |-4---4-4-4-4-4-4-4-4-4-4-4-4---6---6-6-6-6-6-6-6-6-6-6-6-6---|
6.- |-------------------------------------------------------------|
          * * * * * * * * *             * * * * * * * * 

CORO (Lo bueno de que el pasado sea ayer)
1.- |-------------------------------------------------------------|
2.- |-------------------------------------------------------------|
3.- |-----------------6-6-6-6-6-----------------8-8-8-8-8---------|
4.- |-6/9-9-9-9-9-8-9-----------9-8-6/8-8-8-8-8-------------------|
5.- |-------------------------------------------------------------|
6.- |-------------------------------------------------------------|


1.- |----------------------------------------------------|
2.- |----------------------------9-11-9-11-9-11-9-11-----|  
3.- |-----------------6-6-6-6-6--------------------------|                      
4.- |-6/9-9-9-9-9-8-9------------------------------------|
5.- |----------------------------------------------------|
6.- |----------------------------------------------------| X2 
Todo el coro
La segunda acaba en 6 

 (atraaaas)
1.- |-------------------------------------------------------------|
2.- |-------------------------------------------------------------|
3.- |-3-3--4-4----8---6-6----3-3--4-4----10---11--11--------------|
4.- |-3-3--4-4----8---6-6----3-3--4-4----10---11--11--------------|
5.- |-1-1--2-2----6---4-4----1-1--2-2----8----9---9---------------|
6.- |-------------------------------------------------------------| x2

Verso 2 (Qué más habrá por creer)
1.- |-----------------------------------------------------------------|
2.- |-----------------------------------------------------------------|
3.- |-----------------------------------------------------------------|
4.- |-9-9-9-9-9-9-10-10-10-10-10-10-6-6-6-8-8-8-8-9-9-9-8-8-8-6-6-6---|
5.- |---------------------------------------------------------------9-|
6.- |-----------------------------------------------------------------| x4

CORO (Lo bueno de que el pasado sea ayer)
1.- |-------------------------------------------------------------|
2.- |-------------------------------------------------------------|
3.- |-----------------6-6-6-6-6-----------------8-8-8-8-8---------|
4.- |-6/9-9-9-9-9-8-9-----------9-8-6/8-8-8-8-8-------------------|
5.- |-------------------------------------------------------------|
6.- |-------------------------------------------------------------|


1.- |----------------------------------------------------|
2.- |----------------------------9-11-9-11-9-11-9-11-----|  
3.- |-----------------6-6-6-6-6--------------------------|                      
4.- |-6/9-9-9-9-9-8-9------------------------------------|
5.- |----------------------------------------------------|
6.- |----------------------------------------------------| X2 
La segunda acaba en 6, Todo el coro

 (atraaaas)
1.- |-------------------------------------------------------------|
2.- |-------------------------------------------------------------|
3.- |-3-3--4-4----8---6-6----3-3--4-4----10---11--11--------------|
4.- |-3-3--4-4----8---6-6----3-3--4-4----10---11--11--------------|
5.- |-1-1--2-2----6---4-4----1-1--2-2----8----9---9---------------|
6.- |-------------------------------------------------------------| x2


Puente
1.- |---------------------------------|
2.- |---------------------------------|
3.- |---------------------------------|
4.- |---------------------------------|
5.- |-9-9-8-8-6-6-6-6-9-9-8-6-6--(x4)-|
6.- |---------------------------------|


1.- |--------9----------------9---------9---------------9--|
2.- |--------------- 11------------------------11----------|
3.- |----11-------11-------11--------11-----11-------11----|
4.- |-11-------11-------11---------11----11-------11-------|
5.- |------------------------------------------------------|
6.- |------------------------------------------------------|

1.- |-14/15-14/15-14/15--14--|
2.- |------------------------|
3.- |------------------------|
4.- |------------------------|
5.- |------------------------|
6.- |------------------------|



1.- |--------9----------------9------------------9---------------9--|
2.- |--------------- 11---------------------------------11----------|
3.- |----11-------11-------11-----------------11-----11-------11----|
4.- |-11-------11-------11------------------11----11-------11-------|
5.- |---------------------------------------------------------------|
6.- |---------------------------------------------------------------|

Outro                              En esto me he convertido  
1.- |----------------11-9-----------------------11-9-----------------|
2.- |-9-11-9-11-9-11------(x4)---9-11-9 11-9 11-------[12 11-12-11-9]|
3.- |----------------------------------------------------------------|
4.- |------------------------------------------------cada dos tiempos|
5.- |--------------------------------------------------se agrega esto|
6.- |--------------------------------------------------------al-final|

Twitter- @tuamigoesun             Follow si les agrada.  ;)





Comments


Popular Panda tabs & chords
Abierto Bass Tabs
Y De La Gasolina Renacio El Amor Bass Tabs
En El Vaticano Chords
Los Malaventurados No Lloran Chords
Cita En El Quirofano 5 Tabs
Los Malaventurados No Lloran Tabs
Miedo A Las Alturas 1 Tabs
Pathetica 2 Tabs
Pathetica 3 Tabs
Solo A Terceros 1 Tabs


Song lyrics



↑ Back to top | Tablatures and chords are parodies/interpretations of the original songs. You may use it for private study, scholarship, research or language learning purposes only
© 2014 AZChords.com Contact us | Privacy policy | DMCA | Add/correct tabs | Request tabs | Top 50 tabs