>
 >
Solo A Terceros

Solo A Terceros Guitar Tabs

Panda - Solo A Terceros chords, tabs, tablatures, lyrics

Guitar lessons | Add/correct | Request | Top 50 tabs Artists:  A B C D E F G H I J K L M N O P Q R S T U V W X Y Z 0-9

Solo A Terceros Guitar Tabs – Panda

CD, Sheet music, Poster

Do you like Solo A Terceros? Share with your friends now
TabsTabs v2Tabs v3Tabs v4Tabs v5Tabs v6
Solo a Terceros----------PXNDX
POETICS

esta es la nueva cancion de panda y sta bn perrona
espero q les guste

(si algo sta mal diganme x coments, lo saque con puro oido)

1=guitarra1
2=guitarra2


intro
|----------------------------------------------------------------|                  
|-----0-----0---------0-----0---------0-----0-----------4--------|      
|---0-----0-----0---0-----0-----0---0-----0-----0-----5---5-----0|     
|-2-----2-----2---1-----1-----1---0-----0-----0-----4-------4---2|       
|-------------------------------------------------5-------------3|      
|---------------------------------------------------------------0|

|-------------------------------|
|-------------------------------|
|-------------------------------|
|----10-----10-10-10-10-10-10-10|
|----10-----10-10-10-10-10-10-10|
|-----8------8--8--8--8--8--8--8|

verso (tal vez no...)
|--------------------------|1      |-------------------------------|2
|--------------------------|       |-------------------------------|
|--------------------------|       |-8-8------6-6-----1010---------|
|-10-10-10-10-10-10-10-1010|       |-8-8------6-6-----1010-----1010|
|-10-10-10-10-10-10-10-1010|       |-6-6------4-4------8-8-----1010|
|--8--8--8--8--8--8--8--8-8|       |----------------------------8-8|x3


verso (es tu secundario...)
|-------------------------------|2      |-----------------------|--------|1
|-------------------------------|       |----5---5--5---5---5--5|---7---7|
|-------------------------------|       |-66--66---6--44--44--4-|-44--44-|
|-8-8-8-8-8-8-8-8-8-8-8-88-88-88|       |-----------------------|--------|
|-8-8-8-8-8-8-8-8-8-8-8-88-88-88|       |-----------------------|--------|
|-6-6-6-6-6-6-6-6-6-6-6-66-66-66|x2     |-------------------esto c repite|x4


coro -las 2 guitarras
|------------------|
|------------------|
|------------------|
|-66-99-77-7-7-7-77|
|-44-77-55-5-5-5-55|
|-44-77-55-5-5-5-55|x8


|------------------------|1
|------------------------|
|------------------------|
|-7/9---------7/9--------|
|-----777-999-----777-666|
|------------------------|


verso (como se...)
|--------------------------|1      |-------------------------------|2
|--------------------------|       |-------------------------------|
|--------------------------|       |-8-8------6-6-----1010---------|
|-10-10-10-10-10-10-10-1010|       |-8-8------6-6-----1010-----1010|
|-10-10-10-10-10-10-10-1010|       |-6-6------4-4------8-8-----1010|
|--8--8--8--8--8--8--8--8-8|       |----------------------------8-8|x3


verso (y aunque...)
|-------------------------------|2      |-----------------------|--------|1
|-------------------------------|       |----5---5--5---5---5--5|---7---7|
|-------------------------------|       |-66--66---6--44--44--4-|-44--44-|
|-8-8-8-8-8-8-8-8-8-8-8-88-88-88|       |-----------------------|--------|
|-8-8-8-8-8-8-8-8-8-8-8-88-88-88|       |-----------------------|--------|
|-6-6-6-6-6-6-6-6-6-6-6-66-66-66|x2     |-------------------esto c repite|x2

coro -las 2 guitarras
|------------------|
|------------------|
|------------------|
|-66-99-77-7-7-7-77|
|-44-77-55-5-5-5-55|
|-44-77-55-5-5-5-55|x8

solo!!!!!!
|-------------|--------|
|-8-8--9-11--8|-8787878|
|-------------|--------|
|-------------|--------|
|-------------|--------|
|-------------|--------|x6

(no me arrepiento...)
|-----------------------------------------------------------------------|
|-99999999111111111111111188888888-11111111121212126666-8888999944449999|
|-----------------------------------------------------------------------|
|-----------------------------------------------------------------------|
|-----------------------------------------------------------------------|
|-----------------------------------------------------------------------|x2

coro -las 2 guitarras
|------------------|
|------------------|
|------------------|
|-66-99-77-7-7-7-77|
|-44-77-55-5-5-5-55|
|-44-77-55-5-5-5-55|x8

outro
|------------------------|1
|------------------------|
|------------------------|
|-7/9---------7/9--------|
|-----777-999-----777-666|
|------------------------|

letra:
Tal vez no sucedió
Tal vez esto sea una ilusión
Tal vez sea una obra dramatúrgica
Con actores y tú eres la principal
Y ese de abajo es tu secundario

Inició la función
Y qué pasará al final de este drama sexual?
Valdrá la pena esperar el final?
Me agrada sentir dolor
Ven a contármelo

Que quiero escucharlo
Quiero escucharlo
Pones tu cara de querer decir lo siento
Él te dejó sin aliento
Quiero escucharlo
Tienes talento para dar placer
Pero sólo a terceros

Cómo se sintió?
Al tocar a alguien que no era yo
Al rozar las sábanas con alguien más
Se que pensaste en mi
Espero que lo hayas gozado!

Y aunque nunca te alejaste de mi
Siempre existió temor que cometas fraude a mi amor
Y ahora comprendo que mi corazón
Merece una explicación
Ven a explicárselo

Que quiere escucharlo
Quiere escucharlo
Pones tu cara de querer decir lo siento
Él te dejó sin aliento
Quiero escucharlo
Tienes talento para dar placer
Pero sólo a terceros

Y no me arrepiento de siempre dudar
Cuestionar tu fidelidad
Y hasta tu forma de mirar
Y la amargura futura soy yo
Siempre presente yo
Pues no quiero perdérmelo

Y quiero escucharlo!
Quiero escucharlo
Pones tu cara de querer decir lo siento 
Que ya caes en lo burlesco
Quiero escucharlo
Tienes talento para dar placer
Pero sólo a terceros





Comments


Popular Panda tabs & chords
Cita En El Quirofano Bass Tabs
Comfy In Nautica Chords
Claro Que No Tabs
Como Cuando Teniamos 16 Tabs
La Estrategia Perdida 1 Tabs
Los Malaventurados No Lloran 1 Tabs
MuñEca 2 Tabs
Pathetica Tabs
Principio De Christina Tabs
Tus Palabras Punzocortantes Tabs


Song lyrics



↑ Back to top | Tablatures and chords are parodies/interpretations of the original songs. You may use it for private study, scholarship, research or language learning purposes only
© 2014 AZChords.com Contact us | Privacy policy | DMCA | Add/correct tabs | Request tabs | Top 50 tabs