» » »

Only Difference Between Martyrdom And Suicide Is Press Coverage Tabs (ver.4)

Artists:  A B C D E F G H I J K L M N O P Q R S T U V W X Y Z # 

Only Difference Between Martyrdom And Suicide Is Press Coverage Tabs (ver.4)

Panic At The Disco
Rating:
0/5 (0 votes)

Tabs too difficult? Try these video lessons and learn fast.
                Ok, This is my first tab, so go easy on me.
Here it is.

Verse 1:
Guitar 1:
e|---2-2-x-2---2-x-2---2-x-0---0-x-0---0-x-0---0-x-2---2-x-0-x-0-x-0-|
b|---2-2-x-2---2-x-2---2-x-3---3-x-0---0-x-0---0-x-2---2-x-3-x-3-x-3-|
g|---2-2-x-2---2-x-2---2-x-4---4-x-1---1-x-1---1-x-2---2-x-4-x-4-x-4-|
d|---4-4-x-2---2-x-0---0-x-4---4-x-2---2-x-0---0-x-0---0-x-4-x-4-x-4-|
a|---4-4-x-4---4-x-0---0-x-2---2-x-2---2-x-2---2-x-0---0-x-2-x-2-x-2-|
e|---2-2-x-2---2-x-------x-------x-0---0-x-0---0-x-------x---x---x---|



e|---2-2-x-2---2-x-2---2-x-0---0-x-0---0-x-0---0-x-2---2-x-0-x-0-x-0-|
b|---2-2-x-2---2-x-2---2-x-3---3-x-0---0-x-0---0-x-2---2-x-3-x-3-x-3-|
g|---2-2-x-2---2-x-2---2-x-4---4-x-1---1-x-1---1-x-2---2-x-4-x-4-x-4-|
d|---4-4-x-2---2-x-0---0-x-4---4-x-2---2-x-0---0-x-0---0-x-4-x-4-x-4-|
a|---4-4-x-4---4-x-0---0-x-2---2-x-2---2-x-2---2-x-0---0-x-2-x-2-x-2-|
e|---2-2-x-2---2-x-------x-------x-0---0-x-0---0-x-------x---x---x---|


Pre-chorus:
Guitar 1: (very, very quiet)
e|---5---5---5---5---5p4h5p4h5p4h5p4-7p5h7p5h7p5h7p5-4h5p4h5p4h5p4h5-|
b|-------------------------------------------------------------------|
g|-------------------------------------------------------------------|
d|-------------------------------------------------------------------|
a|-------------------------------------------------------------------|
e|-------------------------------------------------------------------|


e|---5---5---5---5---5p4h5p4h5p4h5p4-7p5h7p5h7p5h7p5-4h5p4h5p4h5p4h5-|
b|-------------------------------------------------------------------|
g|-------------------------------------------------------------------|
d|-------------------------------------------------------------------|
a|-------------------------------------------------------------------|
e|-------------------------------------------------------------------|


Guitar 2:
e|-------------------------------------------------------------------|
b|-------------------------------------------------------------------|
g|-------------------------------------------------------------------|
d|---4-4-4-4-4-4-4-4-0-0-0-0-0-0-0-0-2-2-2-2-2-2-2-2-0-0-0-0-0-0-0-0-|
a|---4-4-4-4-4-4-4-4-0-0-0-0-0-0-0-0-2-2-2-2-2-2-2-2-0-0-0-0-0-0-0-0-|
d|---4-4-4-4-4-4-4-4-0-0-0-0-0-0-0-0-2-2-2-2-2-2-2-2-0-0-0-0-0-0-0-0-|


e|-------------------------------------------------------------------|
b|-------------------------------------------------------------------|
g|-------------------------------------------------------------------|
d|---4-4-4-4-4-4-4-4-0-0-0-0-0-0-0-0-2-2-2-2-2-2-2-2-0-0-0-0-0-0-0-0-|
a|---4-4-4-4-4-4-4-4-0-0-0-0-0-0-0-0-2-2-2-2-2-2-2-2-0-0-0-0-0-0-0-0-|
d|---4-4-4-4-4-4-4-4-0-0-0-0-0-0-0-0-2-2-2-2-2-2-2-2-0-0-0-0-0-0-0-0-|


e|---------|
b|---------|
g|---------|
d|---4~~~~-|
a|---4~~~~-|
d|---4~~~~-|

Chorus:
e|-------------------------------------------------------------------|
b|-------------------------------------------------------------------|
g|---------------------------------------------------2-2-2-2---------|
d|---2-2-2-2-2-2-2-2-4-4-4-4-4-4-4-4-0-0-0-0-0-0-0-0-2-2-2-2-2-2-2-2-|
a|---2-2-2-2-2-2-2-2-4-4-4-4-4-4-4-4-0-0-0-0-0-0-0-0-0-0-0-0-2-2-2-2-|
d|---2-2-2-2-2-2-2-2-4-4-4-4-4-4-4-4-0-0-0-0-0-0-0-0---------2-2-2-2-|


e|-------------------------------------------------------------------|
b|-------------------------------------------------------------------|
g|-------------------------------------------------------------------|
d|---0-0-0-0-0-0-0-0-2-2-2-2-2-2-2-2-4---4-2-4---4-2-4---4-2-4~------|
a|---0-0-0-0-0-0-0-0-2-2-2-2-2-2-2-2-4---4-2-4---4-2-4---4-2-4~------|
d|---0-0-0-0-0-0-0-0-2-2-2-2-2-2-2-2-4---4-2-4---4-2-4---4-2-4~------|


e|-------------------------------------------------------------------|
b|-------------------------------------------------------------------|
g|---------------------------------------------------2-2-2-2---------|
d|---2-2-2-2-2-2-2-2-4-4-4-4-4-4-4-4-0-0-0-0-0-0-0-0-2-2-2-2-2-2-2-2-|
a|---2-2-2-2-2-2-2-2-4-4-4-4-4-4-4-4-0-0-0-0-0-0-0-0-0-0-0-0-2-2-2-2-|
d|---2-2-2-2-2-2-2-2-4-4-4-4-4-4-4-4-0-0-0-0-0-0-0-0---------2-2-2-2-|


e|-------------------------------------------------------------------|
b|-------------------------------------------------------------------|
g|-------------------------------------------------------------------|
d|---0-0-0-0-0-0-0-0-2-2-2-2-2-2-2-2-4---4-2-4---4-2-4---4-2-4~------|
a|---0-0-0-0-0-0-0-0-2-2-2-2-2-2-2-2-4---4-2-4---4-2-4---4-2-4~------|
d|---0-0-0-0-0-0-0-0-2-2-2-2-2-2-2-2-4---4-2-4---4-2-4---4-2-4~------|



Verse 2:
Guitar 1:
e|---2-2-x-2---2-x-2---2-x-0---0-x-0---0-x-0---0-x-2---2-x-0-x-0-x-0-|
b|---2-2-x-2---2-x-2---2-x-3---3-x-0---0-x-0---0-x-2---2-x-3-x-3-x-3-|
g|---2-2-x-2---2-x-2---2-x-4---4-x-1---1-x-1---1-x-2---2-x-4-x-4-x-4-|
d|---4-4-x-2---2-x-0---0-x-4---4-x-2---2-x-0---0-x-0---0-x-4-x-4-x-4-|
a|---4-4-x-4---4-x-0---0-x-2---2-x-2---2-x-2---2-x-0---0-x-2-x-2-x-2-|
e|---2-2-x-2---2-x-------x-------x-0---0-x-0---0-x-------x---x---x---|



e|---2-2-x-2---2-x-2---2-x-0---0-x-0---0-x-0---0-x-2---2-x-0-x-0-x-0-|
b|---2-2-x-2---2-x-2---2-x-3---3-x-0---0-x-0---0-x-2---2-x-3-x-3-x-3-|
g|---2-2-x-2---2-x-2---2-x-4---4-x-1---1-x-1---1-x-2---2-x-4-x-4-x-4-|
d|---4-4-x-2---2-x-0---0-x-4---4-x-2---2-x-0---0-x-0---0-x-4-x-4-x-4-|
a|---4-4-x-4---4-x-0---0-x-2---2-x-2---2-x-2---2-x-0---0-x-2-x-2-x-2-|
e|---2-2-x-2---2-x-------x-------x-0---0-x-0---0-x-------x---x---x---|


Pre-chorus:
Guitar 1: (very, very quiet)
e|---5---5---5---5---5p4h5p4h5p4h5p4-7p5h7p5h7p5h7p5-4h5p4h5p4h5p4h5-|
b|-------------------------------------------------------------------|
g|-------------------------------------------------------------------|
d|-------------------------------------------------------------------|
a|-------------------------------------------------------------------|
e|-------------------------------------------------------------------|


e|---5---5---5---5---5p4h5p4h5p4h5p4-7p5h7p5h7p5h7p5-4h5p4h5p4h5p4h5-|
b|-------------------------------------------------------------------|
g|-------------------------------------------------------------------|
d|-------------------------------------------------------------------|
a|-------------------------------------------------------------------|
e|-------------------------------------------------------------------|


Guitar 2:
e|-------------------------------------------------------------------|
b|-------------------------------------------------------------------|
g|-------------------------------------------------------------------|
d|---4-4-4-4-4-4-4-4-0-0-0-0-0-0-0-0-2-2-2-2-2-2-2-2-0-0-0-0-0-0-0-0-|
a|---4-4-4-4-4-4-4-4-0-0-0-0-0-0-0-0-2-2-2-2-2-2-2-2-0-0-0-0-0-0-0-0-|
d|---4-4-4-4-4-4-4-4-0-0-0-0-0-0-0-0-2-2-2-2-2-2-2-2-0-0-0-0-0-0-0-0-|


e|-------------------------------------------------------------------|
b|-------------------------------------------------------------------|
g|-------------------------------------------------------------------|
d|---4-4-4-4-4-4-4-4-0-0-0-0-0-0-0-0-2-2-2-2-2-2-2-2-0-0-0-0-0-0-0-0-|
a|---4-4-4-4-4-4-4-4-0-0-0-0-0-0-0-0-2-2-2-2-2-2-2-2-0-0-0-0-0-0-0-0-|
d|---4-4-4-4-4-4-4-4-0-0-0-0-0-0-0-0-2-2-2-2-2-2-2-2-0-0-0-0-0-0-0-0-|

Chorus:
e|-------------------------------------------------------------------|
b|-------------------------------------------------------------------|
g|---------------------------------------------------2-2-2-2---------|
d|---2-2-2-2-2-2-2-2-4-4-4-4-4-4-4-4-0-0-0-0-0-0-0-0-2-2-2-2-2-2-2-2-|
a|---2-2-2-2-2-2-2-2-4-4-4-4-4-4-4-4-0-0-0-0-0-0-0-0-0-0-0-0-2-2-2-2-|
d|---2-2-2-2-2-2-2-2-4-4-4-4-4-4-4-4-0-0-0-0-0-0-0-0---------2-2-2-2-|


e|-------------------------------------------------------------------|
b|-------------------------------------------------------------------|
g|-------------------------------------------------------------------|
d|---0-0-0-0-0-0-0-0-2-2-2-2-2-2-2-2-4---4-2-4---4-2-4---4-2-4~------|
a|---0-0-0-0-0-0-0-0-2-2-2-2-2-2-2-2-4---4-2-4---4-2-4---4-2-4~------|
d|---0-0-0-0-0-0-0-0-2-2-2-2-2-2-2-2-4---4-2-4---4-2-4---4-2-4~------|

e|-------------------------------------------------------------------|
b|-------------------------------------------------------------------|
g|---------------------------------------------------2-2-2-2---------|
d|---2-2-2-2-2-2-2-2-4-4-4-4-4-4-4-4-0-0-0-0-0-0-0-0-2-2-2-2-2-2-2-2-|
a|---2-2-2-2-2-2-2-2-4-4-4-4-4-4-4-4-0-0-0-0-0-0-0-0-0-0-0-0-2-2-2-2-|
d|---2-2-2-2-2-2-2-2-4-4-4-4-4-4-4-4-0-0-0-0-0-0-0-0---------2-2-2-2-|


e|-------------------------------------------------------------------|
b|-------------------------------------------------------------------|
g|-------------------------------------------------------------------|
d|---0-0-0-0-0-0-0-0-2-2-2-2-2-2-2-2-4---4-2-4---4-2-4---4-2-4~------|
a|---0-0-0-0-0-0-0-0-2-2-2-2-2-2-2-2-4---4-2-4---4-2-4---4-2-4~------|
d|---0-0-0-0-0-0-0-0-2-2-2-2-2-2-2-2-4---4-2-4---4-2-4---4-2-4~------|

The bridge is some funky keyboards. So, i cant tab them because they arnt guitar.

Play the chorus.



Figure the rest out yourself. Ive spent an hour and a half tabbing this.
Thanks.
            
Tabs too difficult? Try these video lessons and learn fast.




comments powered by Disqus
↑ Back to top | Tablatures and chords are parodies/interpretations of the original songs. You may use it for private study, scholarship, research or language learning purposes only