» » »

Be Free Bass tabs (ver.1)

Artists:  A B C D E F G H I J K L M N O P Q R S T U V W X Y Z # 

Be Free Bass tabs (ver.1)

Papa Roach
Rating:
3/5 (3 votes)

Tabs too difficult? Try these video lessons and learn fast.
                Verses:
G-----------------------|
D-----------------------|
A--------------1-1--0-0-|
D--0-0-3-3-5-5----------|

Chorus Intro:
G----------------------------------------------|
D----------------------------------------------|
A--------------1-1-1-1-1-1-1-1-0-0-0-0-0-0-0-0-|
D--0-0-3-3-5-5---------------------------------|

Chorus:
G-------------------------------------------------------------------------|
D-0-0-0-0-0-----------------------0-0-0-0-0-3-3-3---------------0--0-0-0-0|
A-----------0-0-0-3-3-3-3-3-3-3-3-----------------3-3-3-3-3-3-3-3---------|
D-------------------------------------------------------------------------|


G-------------------------------------------------------|
D-------------------------------------------------------|
A-0-0-0-3-3-3-3-3-3-3-3-1-1-1-1-1-1-1-1-0-0-0-0-0-0-0-0-|
D-------------------------------------------------------|


Bridge:
G----------|
D--0-0-----|
A------1-0-|
D----------|


Ending:
G--------------------------------|
D--0-0-0-----------0-0-0---------|
A--------1-1-1-3---------1-1-1-0-|
D--------------------------------|

Order:
Verses x 4
Chorus Intro x 1
Chorus x 1
Verses x 4
Chorus Intro x 1
Chorus x 2
Bridge x 4
--Pause--Drums & Guitar Only--
Chorus x 2
Ending x 1
            
Tabs too difficult? Try these video lessons and learn fast.




comments powered by Disqus
↑ Back to top | Tablatures and chords are parodies/interpretations of the original songs. You may use it for private study, scholarship, research or language learning purposes only