» » »

Crash Bass tabs (ver.1)

Artists:  A B C D E F G H I J K L M N O P Q R S T U V W X Y Z # 

Crash Bass tabs (ver.1)

Papa Roach
Rating:
0/5 (0 votes)

Tabs too difficult? Try these video lessons and learn fast.
                Band: Papa Roach
Tuning: D A D G
Intro/verse 1: (chorus and distortion effects on but u can play it without those and it 
sounds fine, listen carefully for timing)
|--------------------------------------------------------|
|--------------------------------------------------------|
|--------------------------------------------------------| x3
|-0----------------------7--------------5-----------3----|

Pre-Chorus
|-------------------------|
|-------------------------|
|-------------------------| x2
|-0-0-0-0-0-0-0--0-0--0-0-|

|-----------------------------------------------------------------|
|-----------------------------------------------------------------|
|-----------------------------------------------------------------|
|-7-7-7-7-7-7-7-7-7-7-7-7-7-7-7-7-5-5-5-5-5-5-5-5-5-5-5-5-3-3-3-3-|

Chorus (listen carefully for timing)
|-----------------------------------------------------------------|
|-----------------------------------------------------------------|
|-5-5-5-5-3-3-3-3-0-0-0-0-0-0-0-0---------------------------------| x2
|---------------------------------3-3-3-3-3-3-3-3-5-5-5-5-5-5-5-5-|

Repeat Intro/verse 1 but instead of playing that part 3 times, play 2 times
Repeat Pre-Chorus

Chorus 2:
|-----------------------------------------------------------------|
|-----------------------------------------------------------------|
|-5-5-5-5-3-3-3-3-0-0-0-0-0-0-0-0---------------------------------| x4
|---------------------------------3-3-3-3-3-3-3-3-5-5-5-5-5-5-5-5-|


Repeat Intro/verse 1 but instead of playing that part 3 times, play 2 times
Repeat Pre-Chorus
Repeat Chorus 2

Ending:
|-------------------------|
|-------------------------|
|-------------------------| x6
|-0-0-0-0-0-0-0--0-0--0-0-|
            
Tabs too difficult? Try these video lessons and learn fast.




comments powered by Disqus
↑ Back to top | Tablatures and chords are parodies/interpretations of the original songs. You may use it for private study, scholarship, research or language learning purposes only