» » »

Hollywood Whore Bass tabs (ver.2)

Artists:  A B C D E F G H I J K L M N O P Q R S T U V W X Y Z # 

Hollywood Whore Bass tabs (ver.2)

Papa Roach
Rating:
0/5 (0 votes)

Tabs too difficult? Try these video lessons and learn fast.
                -------------------------------------------------------------------------------
Hollywood Whore – Papa Roch
-------------------------------------------------------------------------------


Tuning: Drop D (fingers are used for this song)

G---------------------------------------|
D---------------------------------------|
A--3-3---2-2-----3-3--2-2---------------|
D---------------------------------------|

Verse-

G-------------------------------------------|
D-------------------------------------------|
A--\15/-3-3--2-2--3-3--2-2--------3--5-3-2--|
D----------------------------------5--------|

G------------------------------------|
D------------------------------------|
A--3-3---2-2---3-3--2-2--------------|
D------------------------------------|

Pre Chorus

G---------------------------------------|
D---------------------------------------|
A---------------------------------------|
D--/-6-6---6-6---5-5--5-5---------------|

Chorus x2    

G-------------------------------------------------|
D-------------------------------------------------|
A--3333333333333333-------------------------------|
D-------------------------------5555555555555555--|

G---------------------------------------------|
D---------------------------------------------|
A---------------------------------------------|
D-6666666666666666-33333333-55555555----------|

Repeat Pre-verse

Verse 2

G-----------------------------------------------------|
D-----------------------------------------------------|
A-3-\15/-3-3--2-2--3-3--2-2---------------------------|
D-----------------------------------------------------|

G-----------------------------------------------------|
D-----------------------------------------------------|
A--3-3---2-2—-2\15/--3-3--2-2-------------------------|
D-----------------------------------------------------|

Repeat Pre-Chorus
Repeat Chorus
Bridge

G----------------------------------------------------|
D----------------------------------------------------| X2
A--6-6-6-6-6-6-6-6-----------------------------------|
D-------------------------5-5-5-5-5-5-5-5------------|

G----------------------------------------------------|
D----------------------------------------------------|X2
A-------------------------------3-3-3-3--1-1-1-1-----|
D--6-6-6-6-6-6-6-6-6---------------------------------|

G-------------------------------------------------|
D-------------------------------------------------|
A-------------------------------------------------|
D-6-6-6-6-6-6-6-6--5-5-5-5-5-5-5-5--3-3-3-3---0~--|

Calm Part

G-------------------------------------------------|
D-------------------------------------------------|
A-15/-3-2-1---------------------------------------|
D-----------6-5-----------------------------------|

G-------------------------------------------------------|
D-------------------------------------------------------|
A-3-3-3-3-3-3-3--8--5-5-5-5-5-5-5--10--8-8-8-8-8-8-8-8--|
D-------------------------------------------------------|

Repeat Chorus

Breakdown
G---------------------------------------------------------|
D---------------------------------------------------------|
A--33333333--5-5-5-5-5-5-5-5--6-6-6-6-6-6-6-6-------------|
D----------------------------------------------3333-5555--|

G--------------------------------------------------------|
D--------------------------------------------------------|
A--33336655-------------8855---6666—-10-6----------------|
D-----------------5555---------------------3-3-5-5-------|

End song-listen for the timing for the slides
G--------------------------------------------|
D--------------------------------------------|
A-----3-3-----2-2---3-3-------2-2----\15/3-3-|
D-17/-----17/------------/-/-----------------|

| /  slide up
| \  slide down
| h  hammer-on
| p  pull-off
| ~  vibrato
| +  harmonic
| x  Mute note
===============================================================================
            
Tabs too difficult? Try these video lessons and learn fast.


comments powered by Disqus
↑ Back to top | Tablatures and chords are parodies/interpretations of the original songs. You may use it for private study, scholarship, research or language learning purposes only