» » »

Never Enough Bass tabs (ver.2)

Artists:  A B C D E F G H I J K L M N O P Q R S T U V W X Y Z # 

Never Enough Bass tabs (ver.2)

Papa Roach
Rating:
0/5 (0 votes)

Tabs too difficult? Try these video lessons and learn fast.
                Band- Papa Roach
Album- Infest
Song- Never Enough
Tuning- D,A,D,G

Intro:
G|-----------------------|
D|-----------------------|
A|-----------------------|
D|----0~----6-2--0~------|

Fill in intro:
G|--------------------------------|
D|--------------------------------|
A|--10--(10)-/12-(12)-\-----------|
D|--------------------------------|

Verse:
G|-------------------------------------------------------------|
D|-------------------------------------------------------------|
A|-------------------------------------------------------------|
D|--4-4-4--x-4---4-4-4--x-4---4-4-4--x-4---4-4-4---x-0---------|

Verse: continued
G|------------------------------------------------------------|
D|------------------------------------------------------------|
A|--2-2-2---x-2---2-2-2---x-2---2-2-2---x-2---2-2-2---x-2-----|
D|------------------------------------------------------------|

Chorus:
G|-----------------|
D|-----------------|
A|-----------------|or
D|--4h7-4h6-4p0----|

G|-----------------|
D|-----------------|
A|-----------------|
D|--4h6-4h5-4p0----|

Bridge:
G|----------------------------------|
D|----------------------------------|
A|----------------------------------|
D|----0~---0~~-6-2--0/---6/---2/----|

Bridge 2:
G|-----------------------------------|
D|-----------------------------------|
A|-----------------------------------|
D|--4-4-4-7-7-7-6-6-6-7-7-7-9-9-7-6--|

Bridge 3:
G|-----------------------------------------------------|
D|-----------------------------------------------------|
A|-----------------------------------------------------|
D|-11-11-11-11-11-11-11-11-11-11-11-11-11-11-11-11/----|

G|------------------|
D|-2-2-2-2-2-2-2-2--|
A|-2-2-2-2-2-2-2-2--|
D|-2-2-2-2-2-2-2-2--|

Then to Chorus

Then
G|---------------------|
D|---------------------|
A|---------------------|
D|--0-(0)---0-6--(6)---|
            
Tabs too difficult? Try these video lessons and learn fast.




comments powered by Disqus
↑ Back to top | Tablatures and chords are parodies/interpretations of the original songs. You may use it for private study, scholarship, research or language learning purposes only