» » »

Scars Bass tabs (ver.3)

Artists:  A B C D E F G H I J K L M N O P Q R S T U V W X Y Z # 

Scars Bass tabs (ver.3)

Papa Roach
Rating:
0/5 (0 votes)
Tabs too difficult? Try these video lessons and learn fast.
                Hey what's up this is Corey. I first heard this song about two years ago and totally
in love with it.
 It's a fantastic song and describes the way I am about the whole world. I first learned 
on the
guitar and about six months ago I got a bass guitar. I knew that this would be a really
song to play so I
 started working with what I knew about the guitar part and fixed it up. This sounds
good, and its
 and for God's sake don't be an a**hole about it.

Intro (0:00-0:21)
G|-------------------------------|
D|-------------------------------|
A|--2-----4-----2-----4----------|
D|-----4-----2-----4-----2--4-4--|

Verse 1 (0:22-0:43)
G|--------------------------------------------------------------|
D|--------------------------------------------------------------|
A|--------------------------------------------------------------|
D|--7--7--7-7-7--7--7-7-2--2--2-2-2--2--2-2-4--4--4-4-4--4--4-4-|

G|----------------------|
D|----------------------| x2
A|----------------------|
D|--6--6--6-6-6--6--6-6-|

Chorus (0:44-1:04)
G|--------------------------------------------------------------|
D|--------------------------------------------------------------|
A|--2--2--2-2-2--2--2-2---------------------4--4--4-4-4--4--4-4-|
D|----------------------4--4--4-4-4--4--4-4---------------------|

G|--------------------------|
D|--------------------------| x2
A|--------------------------|
D|--2-2-2-2---4--4--4-4-4-4-|

Verse 2 (1:05-1:25)
G|--------------------------------------------------------------|
D|--------------------------------------------------------------|
A|--------------------------------------------------------------|
D|--7--7--7-7-7--7--7-7-2--2--2-2-2--2--2-2-4--4--4-4-4--4--4-4-|

G|----------------------|
D|----------------------| x2
A|----------------------|
D|--6--6--6-6-6--6--6-6-|

Chorus (1:26-1:47)
G|--------------------------------------------------------------|
D|--------------------------------------------------------------|
A|--2--2--2-2-2--2--2-2---------------------4--4--4-4-4--4--4-4-|
D|----------------------4--4--4-4-4--4--4-4---------------------|

G|--------------------------|
D|--------------------------| x2
A|--------------------------|
D|--2-2-2-2---4--4--4-4-4-4-|

Verse 3 (1:48-2:08)
G|--------------------------------------------------------------|
D|--------------------------------------------------------------|
A|--------------------------------------------------------------|
D|--7--7--7-7-7--7--7-7-2--2--2-2-2--2--2-2-4--4--4-4-4--4--4-4-|

G|----------------------|
D|----------------------| x2
A|----------------------|
D|--6--6--6-6-6--6--6-6-|

Bridge (2:09-2:19)
G|------------------------|
D|------------------------|
A|--2---------4-----------|
D|-------4---------2--4-4-|

(2:20-2:29)
G|-------------------------|
D|-------------------------|
A|--2-2-------4-4----------|
D|-------4-4-------2-2-4-4-|

(2:30-2:40)
G|-----------------------------------------------|
D|-----------------------------------------------|
A|--22222222222222--------------44444444444444---|
D|----------------44444444444444---------------2-|
PM--..........................................

Chorus (2:41-3:28)
G|--------------------------------------------------------------|
D|--------------------------------------------------------------|
A|--2--2--2-2-2--2--2-2---------------------4--4--4-4-4--4--4-4-|
D|----------------------4--4--4-4-4--4--4-4---------------------|

G|--------------------------|
D|--------------------------| x4 (End last note with slide down fretboard)
A|--------------------------|
D|--2-2-2-2---4--4--4-4-4-4-|
            
Tabs too difficult? Try these video lessons and learn fast.


comments powered by Disqus
↑ Back to top | Tablatures and chords are parodies/interpretations of the original songs. You may use it for private study, scholarship, research or language learning purposes only