» » »

Mama Doma Vecer E Sama Tabs (ver.1)

Artists:  A B C D E F G H I J K L M N O P Q R S T U V W X Y Z # 

Mama Doma Vecer E Sama Tabs (ver.1)

Parketi
Rating:
0/5 (0 votes)

Tabs too difficult? Try these video lessons and learn fast.
                  Zna4i vaka ova e epten lesna pesna i dobra e za po4etnici(ne deka jas sum          
kolku dobar)

  Voved vo anatomija
e|------------|
B|------------|
G|---8--------|
D|---8---8----|
A|---6---8----|
E|-------6----|

e|-----------------------------------|
B|-----------------------------------|
G|---8--8------------10--------------|
D|---8--8---11--11---10----8--8--8---|4 pati
A|---6--6---11--11----8----8--8--8---|
E|-----------9---9---------6--6--6---|

e|--------|
B|--------|
G|--------|
D|---8----|
A|---8----|
E|---6----|

   Sirenje na tekstot
e|----------------------------------|
B|----------------------------------|
G|--8---------------8---------------|
D|--8--------8------8----------8----|
A|--6--------8------6----------8----|
E|-----------6-----------------6----|

   Mama doma vecer e sama
   zato i ja dadov mojta kama
   da ne dojdi nekoj da ja plasi
   oti mama golemka se strasi

   Nemoj da se dumas mori mamo
   ako nekoj te fati za ramo
   vednas ti so nozot da go du-p-nis
   i so kloca silna da go lutnis

e|---------------------------------------|
B|---------------------------------------|
G|---8--8-------------10-----------------|
D|---8--8----11--11---10-----8--8--8-----|4 pati
A|---6--6----11--11----8-----8--8--8-----|
E|------------9---9----------6--6--6-----|


e|-----------|
B|-----------|
G|---8-------|
D|---8-------|
A|---6-------|
E|-----------|


e|----------------------------------|
B|----------------------------------|
G|--8---------------8---------------|
D|--8--------8------8----------8----|
A|--6--------8------6----------8----|
E|-----------6-----------------6----|

    Mamo skrsi mu ja glavata
    ako nekoj 4epka vo kravata
    mamo ti i4 ne se sekiraj
    samo ti po noso go boksiraj

  Solo (demek)
e|------------|
B|------------|
G|---8--------|
D|---8---8----|4 pati
A|---6---8----|
E|-------6----|

e|---------------------------------------|
B|---------------------------------------|
G|---8--8-------------10-----------------|
D|---8--8----11--11---10-----8--8--8-----|4 pati
A|---6--6----11--11----8-----8--8--8-----|
E|------------9---9----------6--6--6-----|


e|-----------|
B|-----------|
G|---8-------|
D|---8-------|
A|---6-------|
E|-----------|

   Mama doma vecer ke e sama
   zato i ja dadov mojta kama
   da ne dojdi nekoj da ja plasi
   oti mama golemka se strasi

   Mama doma vecer ke e sama
   Mama doma vecer ke e sama
   Mama doma vecer ke e sama
   Mama doma vecer ke e sama


e|---------------------------------------|
B|---------------------------------------|
G|---8--8-------------10-----------------|
D|---8--8----11--11---10-----8--8--8-----|4 pati
A|---6--6----11--11----8-----8--8--8-----|
E|------------9---9----------6--6--6-----|


e|-----------|
B|-----------|
G|---8-------|
D|---8-------|
A|---6-------|
E|-----------|


 I KRAJ  a mozi da se sviri i da se svirat rifojte za 1 pole podolu (za 1 polustepen podolu)
 P. S.  mozda ne to4en teksto ama to e
            
Tabs too difficult? Try these video lessons and learn fast.




comments powered by Disqus
↑ Back to top | Tablatures and chords are parodies/interpretations of the original songs. You may use it for private study, scholarship, research or language learning purposes only