» » »

Gitara Tabs (ver.11)

Artists:  A B C D E F G H I J K L M N O P Q R S T U V W X Y Z # 

Gitara Tabs (ver.11)

Parokya Ni Edgar
Rating:
0/5 (0 votes)

Tabs too difficult? Try these video lessons and learn fast.
                OUTRO of gitara .. the difficult part

e|--7~-----7----|-5------5----|
b|-----0-----0~-|----0-----0~-|
g|--------------|-------------|
d|--5~---5-5~---|-4~---4-5~---|
a|--------------|-------------|
e|--------------|-------------|



e|--4~--2h4-5p4-2h4-2~--------|
b|----------------------------|
g|----------------------------|
d|--2~------------------------|
a|----------------------------|
e|----------------------------|


e|-----------5h7-7h8p7-5h7p5~5-----|
b|---------5~------------------5~--|
g|-------5~----------------------5~|
d|-----7~--------------------------|
a|--0~-----------------------------|
e|---------------------------------|



e|----------2h3p2-3p2-5p3-2-0h2p0-----------------------------------------|
b|--------3-----------------------3p0-3p0---------------------------------|
g|----------------------------------------4p2-0-4p2-0---------------------|
d|--0-0-----------------------------------------------5p4-2h4p2-----------|
a|--------------------------------------------------------------5-4-2-----|
e|--------------------------------------------------------------------0~--|


e|-------12~---------|
b|-----12~-----------|
g|---12~-------------|
d|-------------------|
a|-------------------|
e|-------------------|
            
Tabs too difficult? Try these video lessons and learn fast.


comments powered by Disqus
↑ Back to top | Tablatures and chords are parodies/interpretations of the original songs. You may use it for private study, scholarship, research or language learning purposes only