>
 >
All The Little Lights

All The Little Lights Guitar Tabs

Passenger - All The Little Lights chords, tabs, tablatures, lyrics

Guitar lessons | Add/correct | Request | Top 50 tabs Artists:  A B C D E F G H I J K L M N O P Q R S T U V W X Y Z 0-9

All The Little Lights Guitar Tabs – Passenger

CD, Sheet music, Poster

Do you like All The Little Lights? Share with your friends now
ChordsTabsUkulele
-------------------------------------------------------------------------------
-------------------------------------------------------------------------------
Tuning: Standard
Capo: 7


Intro
e|---------------------------------------------------------------------------|
B|---1-----1-----------------1-----1-----1-----------------------------------|
G|-----0-----0---0-----0-------2-----2-----2---------------------------------|
D|-------2---------0-----0-------2-----2-----2-------------------------------|
A|-3-----------------2-----0-------------------------------------------------|
E|-------------3-------------------------------------------------------------|
   
e|---------------------------------------------------------------------------|
B|---1-----1-----------------1-----1-----1-----------------------------------|
G|-----0-----0---0-----0-------2-----2-----2---------------------------------|
D|-------2---------0-----0-------2-----2-----2-------------------------------|
A|-3-----------------2-----0-------------------------------------------------|
E|-------------3-------------------------------------------------------------|
   
e|---------------------------------------------------------------------------|
B|---1-----1-----------------1-----1-----1-------1-----1-----1---------------|
G|-----0-----0---0-----0-------2-----2-----2-------2-----2-----2-------------|
D|-----------------0-----0-------2-----2-----2-------2-----2-----2-----------|
A|-3-----2-----------2-----0-------------------0-----------------------------|
E|-------------3-------------------------------------------------------------|


Verse 1
e|---------------------------------------------------------------------------|
B|---1-----1-----------------1-----1-----1-----------------------------------|
G|-----0-----0---0-----0-------2-----2-----2---------------------------------|
D|-------2---------0-----0-------2-----2-----2-------------------------------|
A|-3-----------------2-----0-------------------------------------------------|
E|-------------3-------------------------------------------------------------|
   One went out in a bus stop in Edinburgh

e|---------------------------------------------------------------------------|
B|---1-----1-----------------1-----1-----1-----------------------------------|
G|-----0-----0---0-----0-------2-----2-----2---------------------------------|
D|-------2---------0-----0-------2-----2-----2-------------------------------|
A|-3-----------------2-----0-------------------------------------------------|
E|-------------3-------------------------------------------------------------|
   One went out in an English park

e|---------------------------------------------------------------------------|
B|---1-----1-----------------1-----1-----1-----------------------------------|
G|-----0-----0---0-----0-------2-----2-----2---------------------------------|
D|-------2---------0-----0-------2-----2-----2-------------------------------|
A|-3-----------------2-----0-------------------------------------------------|
E|-------------3-------------------------------------------------------------|
   One went out in a night club, when I was fifteen

e|---------------------------------------------------------------------------|
B|---1-----1-----------------1-----1-----1-----------------------------------|
G|-----0-----0---0-----0-------2-----2-----2---------------------------------|
D|-------2---------0-----0-------2-----2-----2-------------------------------|
A|-3-----------------2-----0-------------------------------------------------|
E|-------------3-------------------------------------------------------------|
   Little lights in my heart

e|---------------------------------------------------------------------------|
B|---1-----1-----------------1-----1-----1-----------------------------------|
G|-----0-----0---0-----0-------2-----2-----2---------------------------------|
D|-------2---------0-----0-------2-----2-----2-------------------------------|
A|-3-----------------2-----0-------------------------------------------------|
E|-------------3-------------------------------------------------------------|

e|---------------------------------------------------------------------------|
B|---1-----1-----------------1-----1-----1-----------------------------------|
G|-----0-----0---0-----0-------2-----2-----2---------------------------------|
D|-------2---------0-----0-------2-----2-----2-------------------------------|
A|-3-----------------2-----0-------------------------------------------------|
E|-------------3-------------------------------------------------------------|
   One went out when I lied to my mother

e|---------------------------------------------------------------------------|
B|---1-----1-----------------1-----1-----1-----------------------------------|
G|-----0-----0---0-----0-------2-----2-----2---------------------------------|
D|-------2---------0-----0-------2-----2-----2-------------------------------|
A|-3-----------------2-----0-------------------------------------------------|
E|-------------3-------------------------------------------------------------|
   Said the cigarettes she found were not mine

e|---------------------------------------------------------------------------|
B|---1-----1-----------------1-----1-----1-----------------------------------|
G|-----0-----0---0-----0-------2-----2-----2---------------------------------|
D|-------2---------0-----0-------2-----2-----2-------------------------------|
A|-3-----------------2-----0-------------------------------------------------|
E|-------------3-------------------------------------------------------------|
   One went out within me now I smoke like a chimney   

e|---------------------------------------------------------------------------|
B|---1-----1-----------------1-----1-----1-----------------------------------|
G|-----0-----0---0-----0-------2-----2-----2---------------------------------|
D|-------2---------0-----0-------2-----2-----2-------------------------------|
A|-3-----------------2-----0-------------------------------------------------|
E|-------------3-------------------------------------------------------------|
   It's getting dark in this heart of mine

e|---------------------------------------------------------------------------|
B|---1-----1-----------------1-----1-----1-----------------------------------|
G|-----0-----0---0-----0-------2-----2-----2---------------------------------|
D|-------2---------0-----0-------2-----2-----2-------------------------------|
A|-3-----------------2-----0-------------------------------------------------|
E|-------------3-------------------------------------------------------------|
   It's getting dark in this heart of mine

Chorus
e|---------------------------------------------------------------------------|
B|---------------------------------------------------------------------------|
G|---0-----0-----0-----0-----------------------------------------------------|
D|-----0-----0-----0-----0---------------------------------------------------|
A|-------2-----2-----2-----2-------------------------------------------------|
E|-3-------------------------------------------------------------------------|
   We're born with millions

e|---------------------------------------------------------------------------|
B|---1-----1-------------------1-----1-----1-----1---------------------------|
G|-----0-----0---0-----0---------2-----2-----2-----2-------------------------|
D|-------2---------0-----0---------3-----3-----3-----3-----------------------|
A|-3------------------2-----2-3----------------------------------------------|
E|-------------3-------------------------------------------------------------|
   of little lights shining in the dark 

e|---------------------------------------------------------------------------|
B|---1-----------------------------------------------------------------------|
G|-----2-----0-----0-----0-----0---------------------------------------------|
D|-------2-----0-----0-----0-----0-------------------------------------------|
A|-0-------------2-----2-----2-----2-----------------------------------------|
E|---------3-----------------------------------------------------------------|
   And they show us the way

e|---------------------------------------------------------------------------|
B|---------------------------------------------------------------------------|
G|---0-----0-----0-----0-----------------------------------------------------|
D|-----0-----0-----0-----0---------------------------------------------------|
A|-------2-----2-----2-----2-------------------------------------------------|
E|-3-------------------------------------------------------------------------|
   One lights up 

e|---------------------------------------------------------------------------|
B|---1-----1-------------------1-----1-----1-----1---------------------------|
G|-----0-----0---0-----0---------2-----2-----2-----2-------------------------|
D|-------2---------0-----0---------3-----3-----3-----3-----------------------|
A|-3------------------2-----2-3----------------------------------------------|
E|-------------3-------------------------------------------------------------|
   Every time you feel love in your heart

e|---------------------------------------------------------------------------|
B|---1-----1-----------------1-------1p0--1-----1-----1----------------------|
G|-----2-----2---0-----0-------0-----0------2-----2-----2--------------------|
D|-------2---------0-----0-------2------------2-----2-----2------------------|
A|-0-----------------2-----3-------------0-----------------------------------|
E|-------------3-------------------3-----------------------------------------|
  One dies when it moves away

e|---------------------------------------------------------------------------|
B|---1-----1-----------------1-----1-----1-----------------------------------|
G|-----0-----0---0-----0-------2-----2-----2---------------------------------|
D|-------2---------0-----0-------2-----2-----2-------------------------------|
A|-3-----------------2-----0-------------------------------------------------|
E|-------------3-------------------------------------------------------------|
   
e|---------------------------------------------------------------------------|
B|---1-----1-----------------1-----1-----1-----------------------------------|
G|-----0-----0---0-----0-------2-----2-----2---------------------------------|
D|-------2---------0-----0-------2-----2-----2-------------------------------|
A|-3-----------------2-----0-------------------------------------------------|
E|-------------3-------------------------------------------------------------|
   
e|---------------------------------------------------------------------------|
B|---1-----1-----------------1-----1-----1-------1-----1-----1---------------|
G|-----0-----0---0-----0-------2-----2-----2-------2-----2-----2-------------|
D|-----------------0-----0-------2-----2-----2-------2-----2-----2-----------|
A|-3-----2-----------2-----0-------------------0-----------------------------|
E|-------------3-------------------------------------------------------------|


Verse 2
e|---------------------------------------------------------------------------|
B|---1-----1-----------------1-----1-----1-----------------------------------|
G|-----0-----0---0-----0-------2-----2-----2---------------------------------|
D|-------2---------0-----0-------2-----2-----2-------------------------------|
A|-3-----------------2-----0-------------------------------------------------|
E|-------------3-------------------------------------------------------------|
   One went out in the back streets of Manchester

e|---------------------------------------------------------------------------|
B|---1-----1-----------------1-----1-----1-----------------------------------|
G|-----0-----0---0-----0-------2-----2-----2---------------------------------|
D|-------2---------0-----0-------2-----2-----2-------------------------------|
A|-3-----------------2-----0-------------------------------------------------|
E|-------------3-------------------------------------------------------------|
   One went out in an airport in Spain

e|---------------------------------------------------------------------------|
B|---1-----1-----------------1-----1-----1-----------------------------------|
G|-----0-----0---0-----0-------2-----2-----2---------------------------------|
D|-------2---------0-----0-------2-----2-----2-------------------------------|
A|-3-----------------2-----0-------------------------------------------------|
E|-------------3-------------------------------------------------------------|
   One went out, have no doubt

e|---------------------------------------------------------------------------|
B|---1-----1-----------------1-----1-----1-----------------------------------|
G|-----0-----0---0-----0-------2-----2-----2---------------------------------|
D|-------2---------0-----0-------2-----2-----2-------------------------------|
A|-3-----------------2-----0-------------------------------------------------|
E|-------------3-------------------------------------------------------------|
   When I grew up and moved out

e|---------------------------------------------------------------------------|
B|---1-----1-----------------1-----1-----1-----------------------------------|
G|-----0-----0---0-----0-------2-----2-----2---------------------------------|
D|-------2---------0-----0-------2-----2-----2-------------------------------|
A|-3-----------------2-----0-------------------------------------------------|
E|-------------3-------------------------------------------------------------|
   Of the place where the boy used to play

e|---------------------------------------------------------------------------|
B|---1-----1-----1p0---1-----1-----1-----------------------------------------|
G|-----0-----0---0-------2-----2-----2---------------------------------------|
D|-------2-----------------2-----2-----2-------------------------------------|
A|-3-----------------0-------------------------------------------------------|
E|-------------3-------------------------------------------------------------|

e|---------------------------------------------------------------------------|
B|---1-----1-----------------1-----1-----1-----------------------------------|
G|-----0-----0---0-----0-------2-----2-----2---------------------------------|
D|-------2---------0-----0-------2-----2-----2-------------------------------|
A|-3-----------------2-----0-------------------------------------------------|
E|-------------3-------------------------------------------------------------|
   One went out when Uncle Ben got his tumour

e|---------------------------------------------------------------------------|
B|---1-----1-----------------1-----1-----1-----------------------------------|
G|-----0-----0---0-----0-------2-----2-----2---------------------------------|
D|-------2---------0-----0-------2-----2-----2-------------------------------|
A|-3-----------------2-----0-------------------------------------------------|
E|-------------3-------------------------------------------------------------|
   We used to fish and I fish no more

e|---------------------------------------------------------------------------|
B|---1-----1-----------------1-----1-----1-----------------------------------|
G|-----0-----0---0-----0-------2-----2-----2---------------------------------|
D|-------2---------0-----0-------2-----2-----2-------------------------------|
A|-3-----------------2-----0-------------------------------------------------|
E|-------------3-------------------------------------------------------------|
   Though we will not return, I know one still burns

e|---------------------------------------------------------------------------|
B|---1-----1-----------------1-----1-----1-----------------------------------|
G|-----0-----0---0-----0-------2-----2-----2---------------------------------|
D|-------2---------0-----0-------2-----2-----2-------------------------------|
A|-3-----------------2-----0-------------------------------------------------|
E|-------------3-------------------------------------------------------------|
   On a fishing boat of the New Jersey shore

e|---------------------------------------------------------------------------|
B|---1-----1-----------------1-----1-----1-----------------------------------|
G|-----0-----0---0-----0-------2-----2-----2---------------------------------|
D|-------2---------0-----0-------2-----2-----2-------------------------------|
A|-3-----------------2-----0-------------------------------------------------|
E|-------------3-------------------------------------------------------------|
   On a fishing boat of the New Jersey shore


Chorus
e|---------------------------------------------------------------------------|
B|---------------------------------------------------------------------------|
G|---0-----0-----0-----0-----------------------------------------------------|
D|-----0-----0-----0-----0---------------------------------------------------|
A|-------2-----2-----2-----2-------------------------------------------------|
E|-3-------------------------------------------------------------------------|
   We're born with millions

e|---------------------------------------------------------------------------|
B|---1-----1-------------------1-----1-----1-----1---------------------------|
G|-----0-----0---0-----0---------2-----2-----2-----2-------------------------|
D|-------2---------0-----0---------3-----3-----3-----3-----------------------|
A|-3------------------2-----2-3----------------------------------------------|
E|-------------3-------------------------------------------------------------|
   of little lights shining in the dark 

e|---------------------------------------------------------------------------|
B|---1-----------------------------------------------------------------------|
G|-----2-----0-----0-----0-----0---------------------------------------------|
D|-------2-----0-----0-----0-----0-------------------------------------------|
A|-0-------------2-----2-----2-----2-----------------------------------------|
E|---------3-----------------------------------------------------------------|
   And they show us the way

e|---------------------------------------------------------------------------|
B|---------------------------------------------------------------------------|
G|---0-----0-----0-----0-----------------------------------------------------|
D|-----0-----0-----0-----0---------------------------------------------------|
A|-------2-----2-----2-----2-------------------------------------------------|
E|-3-------------------------------------------------------------------------|
   One lights up 

e|---------------------------------------------------------------------------|
B|---1-----1-------------------1-----1-----1-----1---------------------------|
G|-----0-----0---0-----0---------2-----2-----2-----2-------------------------|
D|-------2---------0-----0---------3-----3-----3-----3-----------------------|
A|-3------------------2-----2-3----------------------------------------------|
E|-------------3-------------------------------------------------------------|
   Every time you feel love in your heart

e|---------------------------------------------------------------------------|
B|---1-----1-----------------------------------------------------------------|
G|-----2-----2---0-----0-----0-----------------------------------------------|
D|-------2---------0-----0-----0---------------------------------------------|
A|-0-----------------2-----2-----2-------------------------------------------|
E|-------------3-------------------------------------------------------------|
   One dies when it moves away

e|---------------------------------------------------------------------------|
B|---------------------------------------------------------------------------|
G|---0-----0-----0-----0-----------------------------------------------------|
D|-----0-----0-----0-----0---------------------------------------------------|
A|-------2-----2-----2----2--------------------------------------------------|
E|-3-------------------------------------------------------------------------|
   We're born with millions

e|---------------------------------------------------------------------------|
B|---1-----1----------------1-----1-----1-----1------------------------------|
G|-----0-----0---0----0-------2-----2-----2-----2----------------------------|
D|-------2---------0----0-------3-----3-----3-----3--------------------------|
A|-3-----------------2----3--------------------------------------------------|
E|-------------3-------------------------------------------------------------|
   of little lights shining in our hearts 

e|---------------------------------------------------------------------------|
B|---1-----------------------------------------------------------------------|
G|-----2-----0---------------------------------------------------------------|
D|-------2-----0-------------------------------------------------------------|
A|-0-------------2-----------------------------------------------------------|
E|---------3-----------------------------------------------------------------|
   And they die along the way... ...Till we're old and we're cold

e|---------------------------------------------------------------------------|
B|---1-----1-----------------1-----1-----1-----------------------------------|
G|-----0-----0---0-----0-------2-----2-----2---------------------------------|
D|-------2---------0-----0-------3-----3-----3-------------------------------|
A|-3-----------------2-----3-------------------------------------------------|
E|-------------3-------------------------------------------------------------|
   And lying in the dark

e|---------------------------------------------------------------------------|
B|---1-----1-----------------1-----1-----1-------1p0-------------------------|
G|-----2-----2---0-----0-------0-----0-----0-----0---------------------------|
D|-------2---------0-----0-------2-----2-----2-------------------------------|
A|-0-----------------2-----3-------------------------------------------------|
E|-------------3-------------------------------3-----------------------------|
   Cause they'll all burn out one day

e|---------------------------------------------------------------------------|
B|---1-----1-----------------1-----1-----1-----------------------------------|
G|-----2-----2---0-----0-------0-----0-----0---------------------------------|
D|-------2---------0-----0-------2-----2-----2-------------------------------|
A|-0-----------------2-----3-------------------------------------------------|
E|-------------3-------------------------------------------------------------|
   They'll all burn out one day

e|---------------------------------------------------------------------------|
B|---1-----1-----1-----1-----1-----------------------------------------------|
G|-----2-----2-----2-----2-----2---------------------------------------------|
D|-------2-----------3-----3-----3-------------------------------------------|
A|-0-----------3-------------------------------------------------------------|
E|---------------------------------------------------------------------------|
   Oh Oh

e|---------------------------------------------------------------------------|
B|---1-----1-----------------1-----1-----1-------1p0-------------------------|
G|-----2-----2---0-----0-------0-----0-----0-----0---------------------------|
D|-------2---------0-----0-------2-----2-----2-------------------------------|
A|-0-----------------2-----3-------------------------------------------------|
E|-------------3-------------------------------3-----------------------------|
   They'll all burn out one day

e|---------------------------------------------------------------------------|
B|---1-----1-----------------1-----1-----1-----------------------------------|
G|-----2-----2---0-----0-------0-----0-----0---------------------------------|
D|-------2---------0-----0-------2-----2-----2-------------------------------|
A|-0-----------------2-----3-------------------------------------------------|
E|-------------3-------------------------------------------------------------|
   They'll all burn out one day

e|------------------0--------------------------------------------------------|
B|-----------------1---------------------------------------------------------|
G|---0-----0------2----------------------------------------------------------|
D|-----0-----0---2-----------------------------------------------------------|
A|-------2------0------------------------------------------------------------|
E|-3-------------------------------------------------------------------------|
   Yeah...





Comments


Popular Passenger tabs & chords
Circles Chords
Facebook Chords
The Way That I Need You 2 Chords
What Will Become Of Us Chords
Circles Tabs
Diamonds Tabs
Feather On The Clyde Tabs
Golden Thread Tabs
Patient Love Tabs
Circles Ukulele


Song lyrics



↑ Back to top | Tablatures and chords are parodies/interpretations of the original songs. You may use it for private study, scholarship, research or language learning purposes only
© 2014 AZChords.com Contact us | Privacy policy | DMCA | Add/correct tabs | Request tabs | Top 50 tabs