» » »

Galleywinter Chords (ver.1)

Artists:  A B C D E F G H I J K L M N O P Q R S T U V W X Y Z # 

Galleywinter Chords (ver.1)

Pat Green
Rating:
0/5 (0 votes)

Tabs too difficult? Try these video lessons and learn fast.
                
Chords Used:               

        D                    G                  Cadd9
e----------2----------------3----------------3------
B----------3----------------3----------------3------
G----------2----------------0----------------0------
D---------------------------0----------------2------
A---------------------------2----------------3------
E-------------------------- 3-----------------------


Part 1/Intro:
          D                      G                          Cadd9                   G
e----------2----------------------3---------------------3------------------------3----------
B---------------3----3----------------3-----3---------------3-----3----------------3-----3
G------------------2----------------------0---------------------0-----------------------0---
D----0---------------------------------------------------------------------------------------
A------------------------0h2------------------0h3--------------------0h2----------------
E---------------------------------------------------------------------------------------------

VERSE 1:
D                           G                Cadd9      G
When I was a kid I had a rockin' horse named Ranger
D            G                  Cadd9             G
Out on the front porch we would ride, we would ride
D             G         Cadd9          G
Little red cowboy boots, Little red cowboy hat
D                           G            Cadd9        G
And a pistol that shoots straight as an eagle flies

D--G--Cadd9--G  x2

D                 G           Cadd9           G
Mamma would come out say it's time to come in
D              G               Cadd9            G
I ain't going nowhere mamma and don't ask me again
D               G     Cadd9           G
I was just an outlaw riding on the trail
D                G                Cadd9         G     Cadd9
Knocking over stagecoaches and riding on the rails

CHORUS:
              D    G    Cadd9    G
I'm gone to Gallywinter
D                      G
Place where all the cowboys ride
Cadd9                    G
Place where all the outlaws hide
D
Away from the men who want to 
G                      Cadd9    G
Kill them for what they've done
           D    G   Cadd9    G
I'm gone to Gallywinter
         D    G   Cadd9    G
I'm gone to Gallywinter

D--G--Cadd9--G  x4

VERSE 2:
D                          G
My sister would come out and say
Cadd9                G
"Where you going anyway?"
D                 G                      Cadd9        G
I'm going to Gallywinter and there ain't no girls allowed
D                     G            Cadd9         G
I guess things are different now times have changed
D                   G                           Cadd9        G
A girl is nice to have with you while you're riding on the range
D                      G          Cadd9           G
She can cook your breakfast and talk to you at night
D                      G                              Cadd9
You can argue about things you never thought you'd argue about in
             G
Your whole life
D                   G          Cadd9              G
Twenty five years older and Ranger ain't here no more
D                    G     Cadd9      G
Been replaced by a 1958 model T-bird Ford
D                     G
Baby said where you want to go I said
Cadd9                 G
I don't know maybe Mexico
D               G                 Cadd9      G     Cadd9
Anywhere that tequila flows is alright with me

CHORUS 2:
              D    G    Cadd9    G
I'm gone to Gallywinter
D                      G
Place where all the outlaws hide
Cadd9                    G
Place where all them cowgirls hide
D
Nope, then
G                      Cadd9    G
its alright with me----------
           D    G   Cadd9    G
I'm gone to Gallywinter
         D    G   Cadd9    G
I'm gone to Gallywinter

D--G--Cadd9--G  x4

Part 1/Intro x4

Short Ending:
e-----------------7-------2----
B--------------7--------- 3----
G------------7------------2-----
D--7-7-7-7-------------------
A-----------------------------
E--------------------------------
  harmonics-------- 
            
Tabs too difficult? Try these video lessons and learn fast.




comments powered by Disqus
↑ Back to top | Tablatures and chords are parodies/interpretations of the original songs. You may use it for private study, scholarship, research or language learning purposes only