» » »

George's Bar Tabs (ver.1)

Artists:  A B C D E F G H I J K L M N O P Q R S T U V W X Y Z # 

George's Bar Tabs (ver.1)

Pat Green
Rating:
0/5 (0 votes)

Tabs too difficult? Try these video lessons and learn fast.
                George's Bar Intro
By Pat Green



Here is the intro to George's Bar
(Probably Not Exactly How Pat Plays It):


e---12-----12--12-----X-----12-----12--12-----12----
B---10-----10--10-----X-----10-----10--10-----10----
G---9------9---9------X-----9------9---9------9-----      x2
D---------------------------------------------------
A---------------------------------------------------
E---------------------------------------------------


Just repeat the next section through the into:
(Be sure to let the low open notes that are marked ring out)


e---12-----12--12-----X-----12-----12--12-----12----
B---10-----10--10-----X-----10-----10--10-----10----
G---9------9---9------X-----9------9---9------9-----
D---7------7---7------------X------X---X------X-----
A---0------0---0------------9------9---9------9-----
E---------------------------------------------------


e---12-----12--12-----X-----12-----12--12-----12----
B---10-----10--10-----X-----10-----10--10-----10----
G---9------9---9------X-----9------9---9------9-----
D---X------X---X------------X------X---X------X-----
A---7------7---7------------7------7---7------7-----
E---0------0---0------------0------0---0------0-----
            
Tabs too difficult? Try these video lessons and learn fast.




comments powered by Disqus
↑ Back to top | Tablatures and chords are parodies/interpretations of the original songs. You may use it for private study, scholarship, research or language learning purposes only