» » »

Take Me Out To The Dancehall Tabs (ver.1)

Artists:  A B C D E F G H I J K L M N O P Q R S T U V W X Y Z # 

Take Me Out To The Dancehall Tabs (ver.1)

Pat Green
Rating:
0/5 (0 votes)

Tabs too difficult? Try these video lessons and learn fast.
                Take Me Out To The Dancehall - solo

So, I have basically bs'ed my way through this one. It's pretty close
but definately not exact to what he plays. This is from the live version.

tp  = tremelo pick (extremely fast pick)


e-------3-5/7-5-5\3------------------------------------------e
B--333-----------------3-------------------------------------B
G--444---------------4---4\2-0---0-2-0-0---------------------G
D--555-------------------------2-----------------------------D
A------------------------------------------------------------A
E------------------------------------------------------------E
                                                                              
                       tp
e----------------5-7--(10------------------------------------e
B--3333\11-----3---------8)----------------------------------B
G--4444\22-0h2-------------9-7---7---------------------------G
D------------------------------9-----------------------------D
A------------------------------------------------------------A
E------------------------------------------------------------E
                                                                              

enjoy :)
            
Tabs too difficult? Try these video lessons and learn fast.




comments powered by Disqus
↑ Back to top | Tablatures and chords are parodies/interpretations of the original songs. You may use it for private study, scholarship, research or language learning purposes only