» » »

Dance Tonight Tabs (ver.3)

Artists:  A B C D E F G H I J K L M N O P Q R S T U V W X Y Z # 

Dance Tonight Tabs (ver.3)

Paul Mccartney
Rating:
0/5 (0 votes)

Tabs too difficult? Try these video lessons and learn fast.
                Sheet Music Type: Guitar Tab Lead Guitar
Tuning: Standard NO CAPO
----------------------------------------------------------------------------
 Verse 1&2
     F            C            F           C
e|-----------------8~~~---------------------8~~~------------|
B|---10~~~---------8~~~--------10~~~--------8~~~------------|
G|---10~~~---------9~~~--------10~~~--------9~~~------------|
D|---10~~~--------10~~~--------10~~~-------10~~~------------|
A|----8~~~--------10~~~---------8~~~-------10~~~------------|
E|-----------------8~~~---------------------8~~~------------|
     A#           C            F
e|---6~~~----------8~~~-------------------------------------|
B|---6~~~----------8~~~--------10~~~------------------------|
G|---7~~~----------9~~~--------10~~~------------------------|
D|---8~~~---------10~~~--------10~~~------------------------|
A|---8~~~---------10~~~---------8~~~------------------------|
E|---6~~~----------8~~~-------------------------------------| x2

Chorus Also Play After Whistling
     A#           A#           F            F
e|---6~~~---------6~~~--------------------------------------|
B|---6~~~---------6~~~---------10~~~--------10~~~-----------|
G|---7~~~---------7~~~---------10~~~--------10~~~-----------|
D|---8~~~---------8~~~---------10~~~--------10~~~-----------|
A|---8~~~---------8~~~----------8~~~---------8~~~-----------|
E|---6~~~---------6~~~--------------------------------------|
     A#           A#           C            C
e|---6~~~---------6~~~----------8~~~---------8~~~-----------|
B|---6~~~---------6~~~----------8~~~---------8~~~-----------|
G|---7~~~---------7~~~----------9~~~---------9~~~-----------|
D|---8~~~---------8~~~---------10~~~--------10~~~-----------|
A|---8~~~---------8~~~---------10~~~--------10~~~-----------|
E|---6~~~---------6~~~----------8~~~---------8~~~-----------|

(Whistling)

Play Verse Riff Again for Verse 3

Bridge

e|-1~~~-----2~~~-----3~~~-----------------------------------|
B|----------------------------3-1---3-1---------------------|
G|--------------------------------3-----3-------------------|
D|----------------------------------------------------------|
A|----------------------------------------------------------|
E|----------------------------------------------------------|

e|-1~~~-----2~~~-----3~~~-----------------------------------|
B|----------------------------3-1---------------------------|
G|--------------------------------3---3-2-0---2-0-2--2-0-2--|
D|----------------------------------------------------------|
A|----------------------------------------------------------|
E|----------------------------------------------------------|

Verse 4
     F F   C C   F F   C C   A# A#   C C   F F
e|---1-1---------1-1-----------------------1-1------------|
B|---1-1---5-5---1-1---5-5---3--3----5-5---1-1------------|
G|---2-2---5-5---2-2---5-5---3--3----5-5---2-2------------|
D|---3-3---5-5---3-3---5-5---3--3----5-5---3-3------------|
A|---3-3---3-3---3-3---3-3---1--1----3-3---3-3------------|
E|---1-1---------1-1-----------------------1-1------------|

Chorus
    A# A# A# A#   F F F F   A# A# A# A#   C C C C
e|----------------1-1-1-1-----------------------------------|
B|--3--3--3--3----1-1-1-1---3--3--3--3----5-5-5-5-----------|
G|--3--3--3--3----2-2-2-2---3--3--3--3----5-5-5-5-----------|
D|--3--3--3--3----3-3-3-3---3--3--3--3----5-5-5-5-----------|
A|--1--1--1--1----3-3-3-3---1--1--1--1----3-3-3-3-----------|
E|----------------1-1-1-1-----------------------------------|

Verse to Outro

     F F   C C   F F   C C   A# A#   C C   F F
e|---1-1---------1-1-----------------------1-1------------|
B|---1-1---5-5---1-1---5-5---3--3----5-5---1-1------------|
G|---2-2---5-5---2-2---5-5---3--3----5-5---2-2------------|
D|---3-3---5-5---3-3---5-5---3--3----5-5---3-3------------|
A|---3-3---3-3---3-3---3-3---1--1----3-3---3-3------------|
E|---1-1---------1-1-----------------------1-1------------|

Outro
     A# A#   C C   F F   A# A#   C C   F F 
e|-----------------1-1-----------------1-1------------------|
B|---3--3----5-5---1-1---3--3----5-5---1-1------------------|
G|---3--3----5-5---2-2---3--3----5-5---2-2------------------|
D|---3--3----5-5---3-3---3--3----5-5---3-3------------------|
A|---1--1----3-3---3-3---1--1----3-3---3-3------------------|
E|-----------------1-1-----------------1-1------------------|
     A# A#   C C   F F F
e|-----------------1-1-1~~~~~-------------------------------|
B|---3--3----5-----1-1-1~~~~~-------------------------------|
G|---3--3----5-----2-2-2~~~~~-------------------------------|
D|---3--3----5-----3-3-3~~~~~-------------------------------|
A|---1--1----3-----3-3-3~~~~~-------------------------------|
E|-----------------1-1-1~~~~~-------------------------------|

~| Let Ring
            
Tabs too difficult? Try these video lessons and learn fast.


comments powered by Disqus
↑ Back to top | Tablatures and chords are parodies/interpretations of the original songs. You may use it for private study, scholarship, research or language learning purposes only