» » »

In The Mouth A Desert Tabs (ver.3)

Artists:  A B C D E F G H I J K L M N O P Q R S T U V W X Y Z # 

In The Mouth A Desert Tabs (ver.3)

Pavement
Rating:
0/5 (0 votes)

Tabs too difficult? Try these video lessons and learn fast.
                "(1)
#------------------------------------------------------------------------------##
here it is...it might be tuned differently, but i think i got it.
the guys in my band get p**sed cause i play it all the time now.
also, there are some notes in the intro here that aren't on the album
version, but are on STRAY SLACK and make it sound cooler i think.

In the Mouth of A Desert
By our boys, Pavement

Intro:
~~~
PART A:
E    -------------------------------------------------------|
B    8---5---0---3---5-------0------0-------0------0--------|
G    0---0---0---0---0---3------3------3------3-------------|
D    0---0---0---0---0--------------------------------------|
A    -------------------------------------------------------|
E    -------------------------------------------------------|

PART A: CONTINUED
E    -------------------------------------------------------------|
B   4---4---5---5---7---7---7---7---7---5---5---5---5-------------|
G   0---0---0---0---0---0---0---0---0---0---0---0---0-------------|
D   0---0---0---0---0---0---0---0---0---0---0---0---0-------------|
A    -------------------------------------------------------------|
E    -------------------------------------------------------------|

PART B:
E----------------------------------------------------------------------------|
B    5---5---5---5---5---5---5---5---7---7---7---7---7---7---7---7-----------|
G    0---0---0---0---0---0---0---0---0---0---0---0---0---0---0---0-----------|
D    0---0---0---0---0---0---0---0---0---0---0---0---0---0---0---0-----------|
A ---------------------------------------------------------------------------|
E----------------------------------------------------------------------------|

Play part A twice....then part B 2 and a half times for the intro before the
distortion kicks in at "can you treat it like an oil well?"

then these chords play...open or barre which ever you choose.

C-----Em----G----Bm

I think Malkmus must be tuned differently, or I just suck at transcribing,
because I can't tell what the hell he plays during "It's what I want.." those
two little chords. dammit

the little solo goes something like this.

E-----------------------------10---------------------------------------------------------------10---12---10---8-
B-7---8---7---8---7---8--------7---8---7---8---7---8-------7---8---7---8---7---8--------------------------------
G---------------------------------------------------------------7-----------------------------------------------
D---------------------------------------------------------------------------------------------------------------
A---------------------------------------------------------------------------------------------------------------
E---------------------------------------------------------------------------------------------------------------

It does that a couple of times, the they break loose into the solo/jam ending
in a C chord
'like i said before, he might be in a different tuning, but this is the best
i can do for now.
if you post this anywhere, tell people where you got it..i'm proud that i
figured this out by ear..hehehehe
also, if any one else has any suggestions for other transcriptions, Email me
Kool and the gang.......
"            
Tabs too difficult? Try these video lessons and learn fast.




comments powered by Disqus
↑ Back to top | Tablatures and chords are parodies/interpretations of the original songs. You may use it for private study, scholarship, research or language learning purposes only