» » »

Dont Gimme No Lip Bass tabs (ver.1)

Artists:  A B C D E F G H I J K L M N O P Q R S T U V W X Y Z # 

Dont Gimme No Lip Bass tabs (ver.1)

Pearl Jam
Rating:
0/5 (0 votes)

Tabs too difficult? Try these video lessons and learn fast.
                Pearl Jam
Tuning: BbEADG (5 string)
And 4 string version

1st Verse:

 G|-------------------------------------------------| (2x)
 D|-------------------------------------------------|
 A|------------------------------3-3-3-2-0---0------|
 E|--3-3-3-0-3--3-3-0-3--3-3-3-0------------3-------|
Bb|-------------------------------------------------|

 1st Chorus:

 G|--------------------------------------------------|
 D|--------------------------------------------------|
 A|--------------------------------------------------|
 E|--33333333-11111111-0000000000000000--------------|
Bb|--------------------------------------------------|

 G|---------------------------------------------------|
 D|---------------------------------------------------|
 A|---------------------------------------------------|
 E|--33333333-11111111-00000000-0---0---0-------------|
Bb|-------------------------------3---3---3-1-0-------|

 G|-------------------------------------------------|
 D|-------------------------------------------------|
 A|-------------------------------------------------|
 E|--33333333-11111111-0000000000000000-------------|
Bb|-------------------------------------------------|

 G|--------------------------------------------------|
 D|--------------------------------------------------|
 A|--------------------------------------------------|
 E|--33333333-11111111-0000000000000000--------------|
Bb|--------------------------------------------------|

2nd Verse:

 G|-------------------------------------------------| (3x)
 D|-------------------------------------------------|
 A|------------------------------3-3-3-2-0---0------|
 E|--3-3-3-0-3--3-3-0-3--3-3-3-0------------3-------|
Bb|-------------------------------------------------|

2nd Chorus

 G|---------------------------------------------------|(4x)
 D|---------------------------------------------------|
 A|---------------------------------------------------|
 E|--33333333-11111111-00000000-0---0---0-------------|
Bb|-------------------------------3---3---3-1-0-------|


Bridge:

 G|---------------------------------------------------|
 D|---------------------------------------------------|
 A|--3-3-3-3-2-2-2-2-0-0-0-0-2-0-2-0-2-0-2-0----------|
 E|---------------------------------------------------|
Bb|---------------------------------------------------|

 G|---------------------------2-0-2-0-2-0-------------|
 D|---------------------------------------2-0---------|
 A|--3-3-3-3-2-2-2-2-0-0-0-0--------------------------|
 E|---------------------------------------------------|
Bb|---------------------------------------------------|

 G|---------------------------2-0-2-0-2-0-------------|
 D|---------------------------------------2-0---------|
 A|--3-3-3-3-2-2-2-2-0-0-0-0--------------------------|
 E|---------------------------------------------------|
Bb|---------------------------------------------------|

 G|---------------------------------------------------|
 D|---------------------------------------------------|
 A|--3-3-3-3-2-2-2-2-0-0-0-0-2-0-2-0-2----------------|
 E|------------------------------------3-1------------|
Bb|---------------------------------------------------|


Outro:

 G|-------------------------------------------------| (3x)
 D|-------------------------------------------------|
 A|------------------------------3-3-3-2-0---0------|
 E|--3-3-3-0-3--3-3-0-3--3-3-3-0------------3-------|
Bb|-------------------------------------------------|


Than

 G|-------------------------------------------------|
 D|-------------------------------------------------|
 A|-------------------------------------------------|
 E|--3-3-3-0-3--3-3-3-0-3--3-3-3-0-3----------------|
Bb|-------------------------------------------------|

Finished

If you don't have a 5 String bass just play an octave higher
Don't gimme no lip
1st Verse:

 G|--------------------------------5-5-5-4-2---2-----| (2x)
 D|--5-5-5-2-5--5-5-5-2-5--5-5-5-2-----------5-------|
 A|--------------------------------------------------|
 E|--------------------------------------------------|


1st Chorus:

 G|--------------------------------------------------|
 D|--55555555-33333333-2222222222222222--------------|
 A|--------------------------------------------------|
 E|--------------------------------------------------|

 G|--------------------------------------------------|
 D|--55555555-33333333-22222222----------------------|
 A|-----------------------------7-5-7-5-7-5----------|
 E|-----------------------------------------8-6------|

 G|--------------------------------------------------|
 D|--55555555-33333333-2222222222222222--------------|
 A|--------------------------------------------------|
 E|--------------------------------------------------|

 G|--------------------------------------------------|
 D|--55555555-33333333-2222222222222222--------------|
 A|--------------------------------------------------|
 E|--------------------------------------------------|

2nd Verse:

 G|--------------------------------5-5-5-4-2---2-----| (3x)
 D|--5-5-5-2-5--5-5-5-2-5--5-5-5-2-----------5-------|
 A|--------------------------------------------------|
 E|--------------------------------------------------|

2nd Chorus:

 G|--------------------------------------------------| (4x)
 D|--55555555-33333333-22222222----------------------|
 A|-----------------------------7-5-7-5-7-5----------|
 E|-----------------------------------------8-6------|

Bridge:

 G|--5-5-5-5--4-4-4-4--2-2-2-2--4-2-4-2-4-2-4-2-|
 D|---------------------------------------------|
 A|---------------------------------------------|
 E|---------------------------------------------|

 G|--5-5-5-5--4-4-4-4--2-2-2-2--14-12-14-12-14----------|
 D|--------------------------------------------14-12----|
 A|-----------------------------------------------------|
 E|-----------------------------------------------------|

 G|--5-5-5-5--4-4-4-4--2-2-2-2--14-12-14-12-14----------|
 D|--------------------------------------------14-12----|
 A|-----------------------------------------------------|
 E|-----------------------------------------------------|

 G|--5-5-5-5--4-4-4-4--2-2-2-2--4-2-4-2-4-------|
 D|---------------------------------------5-2---|
 A|---------------------------------------------|
 E|---------------------------------------------|

Outro:

 G|--------------------------------5-5-5-4-2---2-----| (3x)
 D|--5-5-5-2-5--5-5-5-2-5--5-5-5-2-----------5-------|
 A|--------------------------------------------------|
 E|--------------------------------------------------|

 G|--------------------------------------------------|
 D|--5-5-5-2-5--5-5-5-2-5--5-5-5-2-5-----------------|
 A|--------------------------------------------------|
 E|--------------------------------------------------|
            
Tabs too difficult? Try these video lessons and learn fast.




comments powered by Disqus
↑ Back to top | Tablatures and chords are parodies/interpretations of the original songs. You may use it for private study, scholarship, research or language learning purposes only