» » »

Life Wasted Bass tabs (ver.1)

Artists:  A B C D E F G H I J K L M N O P Q R S T U V W X Y Z # 

Life Wasted Bass tabs (ver.1)

Pearl Jam
Rating:
0/5 (0 votes)

Tabs too difficult? Try these video lessons and learn fast.
                Bassist: Jeff Ament

0:01 (Intro/"You're always saying...")

G|-----|
D|-----|
A|7----|
E|--77-|

G|-----------| (x5)
D|-----------|
A|9-----7----|
E|--99----77-|    (The timing's a little tricky)

0:20 
 
G|----------------------------------|
D|----------------------------------|
A|9-9-7-9-7-9-7-9-7-9-9-9-7-9-7-9-7-|
E|----------------------------------|

0:26 ("I seen the home...")

G|----------------|
D|----------------|
A|7---6---7---6---|
E|----------------|

G|----------------------------------|
D|----------------------------------|
A|9-9-7-9-7-9-7-9-7-9-9-9-7-9-7-9-7-|
E|----------------------------------|

G|----------------|
D|----------------|
A|7---6---7---6---|
E|----------------|

0:44 ("I have faced it...")

G|------------------------| (x3)
D|------------------------|
A|9-----9-----9-----7-----|
E|--99----99----99----77--|

G|----------------------------------|
D|----------------------------------|
A|9-9-7-9-7-9-7-9-7-9-9-9-7-9-7-9-7-|
E|----------------------------------|

1:10 (The world awaits just up the stairs...")

G|----------------|
D|----------------|
A|7---6---7---6---|
E|----------------|

G|----------------------------------|
D|----------------------------------|
A|9-9-7-9-7-9-7-9-7-9-9-9-7-9-7-9-7-|
E|----------------------------------|

G|----------------|
D|----------------|
A|7---6---7---6---|
E|----------------|

1:29 (Solo/Guitar bit)

G|------------| (x4)
D|------------|
A|9-----7-----|
E|--99----77--|

1:43 ("You're Always saying...")

G|------------| (x4)
D|------------|
A|9-----7-----|
E|--99----77--|

1:57 ("Darkness comes in waves...")

G|----------------------|  (x3)
D|----------------------|
A|11--11-11-------------|
E|-----------12--12-12--|

G|-------|
D|-------|
A|-------|
E|12~----|

2:24 ("I have faced it...")

G|------------------------| (x4)
D|------------------------|
A|9-----9-----9-----7-----|
E|--99----99----99----77--|

2:51 (Outro/Solo)

G|------------| (x17, fade out)
D|------------|
A|9-----7-----|
E|--99----77--|

Questions, comments, concerns, I'm open to all critics.
            
Tabs too difficult? Try these video lessons and learn fast.


comments powered by Disqus
↑ Back to top | Tablatures and chords are parodies/interpretations of the original songs. You may use it for private study, scholarship, research or language learning purposes only