» » »

Love Reign Oer Me Tabs (ver.1)

Artists:  A B C D E F G H I J K L M N O P Q R S T U V W X Y Z # 

Love Reign Oer Me Tabs (ver.1)

Pearl Jam
Rating:
0/5 (0 votes)

Tabs too difficult? Try these video lessons and learn fast.
                Verse:
        D
 Only love
             D
Can make it rain
              C                     C
The way the beach is kissed by the sea
      D
Only love
             D
Can make it rain
           C
Like the sweat of lovers
                 C
Laying in the fields.


Chorus:

D                                        G
Love, Reign o'er me, rain on me, rain on me

D                                        G                A
Love, Reign o'er me, rain on me, rain on me


Verse:

D
Only love
                      D
Can bring the rain
                          C                 C
That makes you yearn to the sky
          D
Only love
                       D
Can bring the rain
                      C                    C
That falls like tears from on high


Chorus:

D                                        G
Love, Reign o'er me, rain on me, rain on me

D                                        G                A
Love, Reign o'er me, rain on me, rain on me


Middle 8:

A
On the dry and dusty road
A
The nights we spend apart alone
A                                       D
I need to get back home to cool, cool rain
A
I can't sleep and I lay and I think

A
The night is hot and black as ink
A                                      D
Oh God, I need a drink of cool, cool rain


Chorus Riff:
-13--12--10---------------------------------------------------|
-------------13--10-------------------------------------------|
---------------------12--10--9--------------------------------|
--------------------------------12--10------------------------|
---------------------------------------13--12--10-------------|
---------------------------------------------------13--12--10-|


On the dry and dusty road.....:
------------------------------------------------|
------------------------------------------------|
-12/14--14-14-----12/14--14---15--14------------|
--------------------------------------15--------|
------------------------------------------------|
------------------------------------------------|

Solo:
-----------------------------------------------------------------------|
-----------------------------------------------------------------------|
-----------------------------------------------------------------------|
-----------------------------------------------------------------------|
-/12--------8--10--8--/12--------8--10--/12--10-----/12--12--10--------|
--------12-------------------12----------------------------------12----|

Solo cont.:
--------------------------------------------------------------|
--------------------------------------------------------------|
-12/14----10-10-12-10---10h12-10h12-10h12-10h12-10h12-10h12---|
--------------------------------------------------------------|
--------------------------------------------------------------|
--------------------------------------------------------------|

Solo cont.:
----------------------------------------------|
--------------15---------17-18-20-------------|
-12/14-14-14----------------------------------|
----------------------------------------------|
----------------------------------------------|
----------------------------------------------|
            
Tabs too difficult? Try these video lessons and learn fast.




comments powered by Disqus
↑ Back to top | Tablatures and chords are parodies/interpretations of the original songs. You may use it for private study, scholarship, research or language learning purposes only