>
 >
Low Light

Low Light Ukulele

Pearl Jam - Low Light chords, tabs, tablatures, lyrics

Guitar lessons | Add/correct | Request | Top 50 tabs Artists:  A B C D E F G H I J K L M N O P Q R S T U V W X Y Z 0-9

Low Light Ukulele – Pearl Jam

CD, Sheet music, Poster

Do you like Low Light? Share with your friends now
Bass TabsChordsTabsTabs v2Tabs v3Ukulele

Tuning: Standard


This is one of the best Pearl Jam songs...EVER! An underrated classic as well. I decided 
add the chords and some tabs in this, especially the solo. This is my first time by the 
so bare with me. I had my music teacher write down the chords and the other parts I mention.

Intro: F Em(x3) G G G (Intro twice, third time continue on Em.)

Em     Am   G   F Em(x3)
Clouds roll by

G
Reeling is what they say

G
Or is it just my way?

Em   Am    G
Wind blows by,

D   Em
Low light

Am  G        D   Em
Sidetracked, low light

(look below)
Can't see my tracks,
Your scent-way back

Intro riff

G
Can I be here all alone?

G
Clear a path to my home

Em    Am   G
Blood runs dry

Intro riff

G
Books and jealousy tell me wrong

G
All I feel, calm

Em    Am    G
Voice rolls by,

D   Em
Low light

Am  G      D   Em
Car crash, low light

(again, look below)
Can't wear my mask,
Your first, my last

G     Am   G
Voice goes by
Two birds is what they'll see

                            G
Getting lost upon their way

G    Em    Am
Wind rolls by,

D   Em
Low light

C   G/B    D   Em
Eye sight, low light

C(x4)

  D        Em
I need the light

(once again look below)
I'll find my way from wrong, what's real?
Your dream I see

End the song just strumming on D

This is the part after "Reeling is what they say", "Or is it just my way", "Can I be 
all alone", "Clear a path to my home", "Books and jealousy tell me wrong", "All I feel, calm"

e|---------------------------------------------------------------------------|
B|-1-0-----------------------------------------------------------------------|
G|---------------------------------------------------------------------------|
D|-----4---------------------------------------------------------------------|
A|---------------------------------------------------------------------------|
E|---------------------------------------------------------------------------|


During "Can't see my tracks, your scent way back", "Can't wear my mask, your first, my 
"I'll find my way from wrong, what's real", and "The dream I see"
e|---------------------------------------------------------------------------|
B|-1---0-----------0---1---0-------------------------------------------------|
G|---0---0---2---0---0---0---0---2-------------------------------------------|
D|---------------------------------------------------------------------------|
A|---------------------------------------------------------------------------|
E|---------------------------------------------------------------------------|

Pre-solo
e|---------------------------------------------------------------------------|
B|-1-0-----------------------------------------------------------------------|
G|-----0---------------------------------------------------------------------|
D|-------4-------------------------------------------------------------------|
A|---------------------------------------------------------------------------|
E|---------------------------------------------------------------------------|

Solo
e|--------------------0--------------------------0-2---3---3-2-0---0-----------|
B|-0-1-0-------0-1-0----3-0--0-1-0------0-1-0--3-----------------3-------------|
|
G|------0---0-0------0-------------0--0-0-----0------------------------------|
D|--------0-------------------------0----------------------------------------|
A|---------------------------------------------------------------------------|
E|---------------------------------------------------------------------------|

e|---------------------------------------------------------------------------|
B|--3--0-1-0-----------------------------------------------------------------|
G|-----------0---------------------------------------------------------------|
D|---------------------------------------------------------------------------|
A|---------------------------------------------------------------------------|
E|---------------------------------------------------------------------------|

Listen to the song to get a good feel to it.





Comments


Popular Pearl Jam tabs & chords
Faithfull 3 Bass Tabs
Save You Bass Tabs
Angel Chords
Jeremy 1 Chords
Pendulum Chords
Animal 2 Tabs
Bugs Tabs
Glorified G Tabs
Love Boat Captain Tabs
Parachutes Ukulele


Song lyrics



↑ Back to top | Tablatures and chords are parodies/interpretations of the original songs. You may use it for private study, scholarship, research or language learning purposes only
© 2014 AZChords.com Contact us | Privacy policy | DMCA | Add/correct tabs | Request tabs | Top 50 tabs