» » »

Mind Your Manners Tabs (ver.1)

Artists:  A B C D E F G H I J K L M N O P Q R S T U V W X Y Z # 

Mind Your Manners Tabs (ver.1)

Pearl Jam
Rating:
0/5 (0 votes)
Tabs too difficult? Try these video lessons and learn fast.
                First Tab so be gentle :) Its just a guideline for power chords to play it, just listen 
to the song for timing and stops.

Intro :

e|--------------------------------------------------------------------------|
B|--------------------------------------------------------------------------|
G|--------------------------------------------------------------------------|
D|--10-9-9-9---9-9-9-10-9-9-9---9-9-9-10-9-9-9------------------------------|
A|--------------------------------------------------------------------------|
E|--------------------------------------------------------------------------|


Verse

e|-------------------------------------------------------------------------|
B|-------------------------------------------------------------------------|
G|---------10-9-10---------------------------------------------------------|
D|--9999---10-9-10----9999---10--9-----------------------------------------|
A|--9999---8--7-8-----9999---10--9--0--------------------------------------|
E|--7777--------------7777---8---7--0--------------------------------------|

Chorus

e|--------------------------------------------------------------------------|
B|--------------------------------------------------------------------------|
G|--7777---5--7--5----2222---5555-------------------------------------------|
D|--7777---5--7--5----2222---5555-------------------------------------------|
A|--5555---3--5--3----0000---3333-------------------------------------------|
E|--------------------------------------------------------------------------|


Bridge part

e|--------------------------------------------------------------------------|
B|--------------------------------------------------------------------------|
G|--2222----------------------2222------------------------------------------|
D|--2222----------------------2222------------------------------------------|
A|--0000----------------------0000------------------------------------------|
E|---------3333--2222--3333---------3333--2222--0000------------------------|

Play Verse behind solo

Outro

e|--------------------------------------------------------------------------|
B|--------------------------------------------------------------------------|
G|---------9999--------7-----7--------------------End On--------------------|
D|--9999---9999--5555--7--7--7-----------------------9----------------------|
A|--9999---7777--5555--5--7--5-----------------------9----------------------|
E|--7777---------3333-----5--------------------------7----------------------|
            
Tabs too difficult? Try these video lessons and learn fast.


comments powered by Disqus
↑ Back to top | Tablatures and chords are parodies/interpretations of the original songs. You may use it for private study, scholarship, research or language learning purposes only