>
 >
Mind Your Manners 2

Mind Your Manners 2 Guitar Tabs

Pearl Jam - Mind Your Manners 2 chords, tabs, tablatures, lyrics

Guitar lessons | Add/correct | Request | Top 50 tabs Artists:  A B C D E F G H I J K L M N O P Q R S T U V W X Y Z 0-9

Mind Your Manners 2 Guitar Tabs – Pearl Jam

CD, Sheet music, Poster

Do you like Mind Your Manners 2? Share with your friends now
Bass TabsBass Tabs v2TabsTabs v2Tabs v3Tabs v4
Pearl Jam - Mind Your Manners
Standard Tuning

I listened to the new Pearl Jam and thought it sounds like this. Its
very punk sounding like 'Spin the Black Circle' and a few other songs they 
wrote in the late 90's. Please rate or comment.

Intro (doubled by bass)
e|-------------------------------|----------------------------------|
B|-------------------------------|----------------------------------|
G|-5p4-4-4--4-4-4-5p4-4-4--4-4-4-|-5p4-4-4--------------------------|
D|-------------------------------|----------------------------------|
A|-------------------------------|----------------------------------|
E|-------------------------------|----------------------------------|



Verse (0:15)
e|----------------------|------------------------|
B|----------------------|------------------------|
G|----------10---9---7--|------------------------|
D|-9--9-----10---9---7--|-9--9------10---9---7---|
A|-9--9------8---7---5--|-9--9------10---9---7---|
E|-7--7-----------------|-7--7-------8---7---5---|


Chorus 
e|-----------------------|------------------------|
B|-----------------------|------------------------|
G|-7--7------5---7---5---|-----------5--5--5--5---|
D|-7--7------5---7---5---|-7--7------5--5--5--5---|
A|-5--5------3---5---3---|-7--7------3--3--3--3---|
E|-----------------------|-5--5-------------------|

e|-----------------------|---------------------|
B|-----------------------|---------------------|
G|-7--7------5---7---5---|-----------5---------|
D|-7--7------5---7---5---|-7--7------5---------|
A|-5--5------3---5---3---|-7--7------3---------|
E|-----------------------|-5--5----------------|


Repeat Verse and Chorus riffs


Bridge (1:06) - play 2x
e|-------------|-------------|--------------|--------------|
B|-------------|-------------|--------------|--------------|
G|-------------|-------------|--------------|--------------|
D|-2-----------|-------------|--------------|--------------|
A|-0-----------|-------------|--------------|--------------|
E|-------------|-3-----------|-2------------|-3------------|

e|-------------|-------------|--------------|--------------|
B|-------------|-------------|--------------|--------------|
G|-------------|-------------|--------------|--------------|
D|-2-----------|-------------|--------------|--------------|
A|-0-----------|-------------|--------------|--------------|
E|-------------|-3-----------|-2------------|-0------------|


Final Bridge repeat, Guitar 2 plays:
e|12-x-12-12-12-x-12-12-|-10-x-10-10-10-x-10-10-|
B|----------------------|-----------------------|
G|-9-x--9--9--9-x--9--9-|--7-x--7--7--7-x--7--7-|
D|----------------------|-----------------------|
A|----------------------|-----------------------|
E|----------------------|-----------------------|

1st ending
e|-9-x--9--9--9-x--9--9-|-10-x-10-10-10-x-10-10-||
B|----------------------|-----------------------||
G|-6-x--6--6--6-x--6--6-|--7-x--7--7--7-x--7--7-||
D|----------------------|-----------------------||
A|----------------------|-----------------------||
E|----------------------|-----------------------||

2nd ending
e|-9-x--9--9--9-x--9--9-|--7-x--7--7--7-x--7--7-||
B|----------------------|-----------------------||
G|-6-x--6--6--6-x--6--6-|--4-x--4--4--4-x--4--4-||
D|----------------------|-----------------------||
A|----------------------|-----------------------||
E|----------------------|-----------------------||



Solo - with slapback echo, reverb and several quick slides along the neck

e|-------------|------------------|-------------------------------------------|
B|-10TP--------|-10~~---7---------|-12-12-12-12-15-15-15-15-14-14-14-14-------|
G|-------------|------9---7___/21-|-------------------------------------11~/--|
D|-------------|------------------|-------------------------------------------|
A|-------------|------------------|-------------------------------------------|
E|-------------|------------------|-------------------------------------------|
   TP = tremelo pick notes indicated in sixteenths

e|---------------------|-----------------------------------------|
B|---------------------|-----------------------------------------|
G|-9-9-9-9-7-7-7-7-----|-----------------------------------------|
D|-----------------9~--|-----------------------------------------|
A|---------------------|-----------------------------------------|
E|---------------------|-5-5-5-5-5b-5b-5b-5b-5b-5b-5b-5b-5-5-5---|


E|-21b22~~~~~~~~-\x-----|-19TP----21b22--0--|-19TP----21b22--\x-------|
B|----------------------|-------------------|----------------\x-------|
G|----------------------|-------------------|-------------------------|
D|-----------------/x\--|-------------------|-------------------------|
A|-----------------/x\--|-------------------|-------------------------|
E|----------------------|-------------------|-------------------------|


Play Chorus Again

Play Bridge Again

Ending, played 6x 

  Guitar 1
e|---------------------|-----------------------|
B|---------------------|-----------------------|
G|----------9----------|----------7-------7----|
D|-9--------9----------|-5--------7---7---7----|
A|-9--------7----------|-5--------5---7---5----|
E|-7-------------------|-3------------5--------|
 |
 | Guitar 2
e|-------------------------------|-7\0-------------------|
B|-------------------------------|-----------------------|
G|-5p4-4-4--4-4-4-5p4-4-4--4-4-4-|-----------------------|
D|-------------------------------|-----------------------|
A|-------------------------------|-----------------------|
E|-------------------------------|-----------------------|
 on last two repeats, the slide in bar 2 goes up instead 



Final Bar 
e|---------------------|
B|---------------------|
G|--7-------7----------|
D|--7---7---7---9------|
A|--5---7---5---9------|
E|------5-------7------|


KEY
************************************

| /   slide up
| \   slide down
| h   hammer-on
| p   pull-off
| ~   vibrato
| +   harmonic
| x   Mute note
| b   Bend
| pb  Pre-bend
| r  Bend release
| pbr Pre-bend release
| brb Bend release bend

************************************





Comments


Popular Pearl Jam tabs & chords
Dirty Frank Bass Tabs
W M A 1 Bass Tabs
All Those Yesterdays Chords
Daytime Dilemma Dangers Of Love Tabs
Lightning Bolt Tabs
Man Of The Hour Tabs
Smile 1 Tabs
Worldwide Suicide Tabs
Immortality Ukulele
Speed Of Sound Ukulele


Song lyrics



↑ Back to top | Tablatures and chords are parodies/interpretations of the original songs. You may use it for private study, scholarship, research or language learning purposes only
© 2014 AZChords.com Contact us | Privacy policy | DMCA | Add/correct tabs | Request tabs | Top 50 tabs