» » »

Porch Bass tabs (ver.2)

Artists:  A B C D E F G H I J K L M N O P Q R S T U V W X Y Z # 

Porch Bass tabs (ver.2)

Pearl Jam
Rating:
0/5 (0 votes)

Tabs too difficult? Try these video lessons and learn fast.
                Pearl Jam with Porch
Standard Tuning
The intro/chorus is played through almost the whole song, so variation is easy to do.. 
luck, please rate!

Intro and chorus
g--------------------|
d--------------------|
a--10--12--13--15----|
e--------------------|

g------------------------------------------------------|
d------------------------------------------------------|
a—10-10-101010--12-12-121212—13-13-131313—15-15-151515/|
e------------------------------------------------------|

post-intro (not correct)
g--------------------------------------|
d------353------35~--------------------|
a----4----53---5--------013131----013~-|
e—3-3-------3-3------3-3-------3-3-----|

guitar-solo+with distortion
g----------------------------|
d----------------------------|
a----------------------------|
e---0-------0------0-------0-|

variation in the chorus
g--------------------|
d--------------------|
a--10--12--13--12----|
e--------------------|

in the end the final note you bend.. and close it with a low E with distortion..
            
Tabs too difficult? Try these video lessons and learn fast.


comments powered by Disqus
↑ Back to top | Tablatures and chords are parodies/interpretations of the original songs. You may use it for private study, scholarship, research or language learning purposes only