» » »

Porch Tabs (ver.4)

Artists:  A B C D E F G H I J K L M N O P Q R S T U V W X Y Z # 

Porch Tabs (ver.4)

Pearl Jam
Rating:
0/5 (0 votes)

Tabs too difficult? Try these video lessons and learn fast.
                (Live)
Band: Pearl Jam

Mike McCready’s crazy solo.
I wrote out the note names above each note if anyone cares
to know what they are.

Tuning: Standard

b = bend
/ = slide
h = hammer-on
p = pull-off
v = vibrato
r = release bend

   A  B     D   A  B  D  A  B   D  A  B  D  A  B  D
e----------------------------------------------------|
B-----------15--------15--------15-------15-------15-|
G--14b16vv------14b16----14b16-----14b16----14b16----|
D----------------------------------------------------|
A----------------------------------------------------|
e----------------------------------------------------|

  A  B  A  G E  G    D  E   G    A  B    B  A  G  A
e---------------------------------------------------|
B---------------------------------------12----------|
G-14b16r14p12---12-------12v--14b16vv------14p12-14-|
D------------14----12-14----------------------------|
A---------------------------------------------------|
e---------------------------------------------------|

  A  B B  E  B  D  E     E  D  B  A  B  A  G  E  G
e---------12-------------12--------------------------|
B------12----12-15b17vv-----15-12--------------------|
G-14b16---------------------------14b16r14-12----12--|
D---------------------------------------------14-----|
A----------------------------------------------------|
e----------------------------------------------------|

  A  G  E  D  A  G  D  E  A  G  E  D  A  G  E  D
e----------------------------------------------------|
B----------------------------------------------------|
G-14p12-----14p12------------------------------------|
D------14p12-----14p12-14p12---12-14p12-----14p12----|
A----------------------------14--------14p12------14-|
e----------------------------------------------------|

  A B A G A B A G  G    A B G  G G  G D E E B E F#E D
e-----------------------------------------------------|
B------------------0----0---3--3-3--3-3h5-5b7-5b7r5p3-|
G-2b4r2-0-2b4r2-0--0----2/4-4--4-4--4-----------------|
D------------------0----------------------------------|
A-----------------------------------------------------|
e-----------------------------------------------------|

  E F#E D B B G B A G A    E   E D E D  B A B A  E D E D
e--------------------------------------------------------|
B-5b7r5p3p0----------------------------------------------|
G-----------4b5r4p2p0-2bv-/9---9-7-9-7-----------9-7-9-7-|
D---------------------------------------9-7-9-7----------|
A--------------------------------------------------------|
e--------------------------------------------------------|
                               ^Hammer these notes on
with your hand and shake your tone switch back and forth
so the notes come out wavy.

  E F# E D B D   B    A  B B E  E  D  E
e----------------------------12-12--------|
B--------------------------12------15b17v-|
G-9b11r9p7---7v-/16---14b16---------------|
D----------9------------------------------|
A-----------------------------------------|
e-----------------------------------------|

  E  D  B  A  B  B  D  E     E  D  B  A  B  B  D  E
e-12-------------------------12--------------------------|
B----15-12-------12-15b17vv-----15-12-------12-15b17vvvv-|
G----------14b16----------------------14b16--------------|
D--------------------------------------------------------|
A--------------------------------------------------------|
e--------------------------------------------------------|
            
Tabs too difficult? Try these video lessons and learn fast.


comments powered by Disqus
↑ Back to top | Tablatures and chords are parodies/interpretations of the original songs. You may use it for private study, scholarship, research or language learning purposes only