» » »

Sad Bass tabs (ver.1)

Artists:  A B C D E F G H I J K L M N O P Q R S T U V W X Y Z # 

Sad Bass tabs (ver.1)

Pearl Jam
Rating:
0/5 (0 votes)

Tabs too difficult? Try these video lessons and learn fast.
                ---------------------------------------------------------------------------
			     SAD – Pearl Jam
---------------------------------------------------------------------------




intro 

G|------------------------------|------------------------------|
D|------------------------------|------------------------------|
A|------------------------------|------------------------------|  
E|-10-10-10---------------------|--13-13-13--------------------|

G|------------------------------|------------------------------|
D|------------------------------|------------------------------|
A|------------------------------|------------------------------|  
E|-10-10-10---10---10-10--------|--13-13---13-13----5--5-5-5---|

G|------------------------------|------------------------------|
D|------------------------------|------------------------------|
A|------------------------------|------------------------------|  
E|-10-10-10---10---10-10--------|--13-13---13-13----5--5-5-5---|



verse (x2)

G|------------------------------|------------------------------|
D|------------------------------|------------------------------|
A|------------------------------|------------------------------|  
E|-10-10-10---10---10-10--------|--13-13---13-13----5--5-5-5---|

G|------------------------------|------------------------------|
D|------------------------------|------------------------------|
A|------------------------------|------------------------------|  
E|-10-10-10---10---10-10--------|--13-13---13-13----5--5-5-5---|


chorus

G|------------------------------|------------------------------|
D|------------------------------|------------------------------|
A|---5-5--5-5-5-—-5-5—-5-5-5----|---8-8--8-8-8-----------------|  x2
E|------------------------------|-----------------5-5—-5-5-5---|

G|------------------------------|------------------------------|
D|------------------------------|------------------------------|
A|------------------------------|---5-5--5-5-5----8-8--8-8-8---|  x2
E|---6-6--6-6-6---5-5—-5-5-5----|------------------------------|

G|------------------------------|
D|------------------------------|
A|------------------------------|
E|---6-6--6-6-6---5~------------|



verse x2

chorus x1



bridge

G|------------------------------------------------------------------|
D|------------------------------------------------------------------|
A|--5-5-5----5-3----3-3--3-3-3---------------3-3—-3-3-3-------------| x2
E|---------------5---------------5-5--5-5-5-------------5-5—-5-5-5--|

G|----------------------------|
D|----------------------------|
A|--3-3—-3-3-3----------------|
E|----------------5-5—-5-5-5--|


solo

G|------------------------------|------------------------------|
D|------------------------------|------------------------------|
A|---8-8--8-8-8-—-7-7—-7-7-7----|------------------------------|  x2
E|------------------------------|--5-5—-5-5-5-----8-8—-8-8-8---|

G|------------------------------|
D|------------------------------|
A|---8-8--8-8-8-—-7~------------| 
E|------------------------------|


outro

G|------------------------------|------------------------------|
D|------------------------------|------------------------------|
A|---5-5--5-5-5-—-5-5—-5-5-5----|---8-8--8-8-8-----------------|  x1
E|------------------------------|-----------------5-5—-5-5-5---|

G|------------------------------|------------------------------|
D|------------------------------|------------------------------|
A|------------------------------|---5-5--5-5-5----8-8--8-8-8---|  x2
E|---6-6--6-6-6---5-5—-5-5-5----|------------------------------|

G|------------------------------|
D|------------------------------|
A|------------------------------|
E|---6-6--6-6-6---5~------------|
            
Tabs too difficult? Try these video lessons and learn fast.




comments powered by Disqus
↑ Back to top | Tablatures and chords are parodies/interpretations of the original songs. You may use it for private study, scholarship, research or language learning purposes only