» » »

Satan's Bed Bass tabs (ver.2)

Artists:  A B C D E F G H I J K L M N O P Q R S T U V W X Y Z # 

Satan's Bed Bass tabs (ver.2)

Pearl Jam
Rating:
0/5 (0 votes)
Tabs too difficult? Try these video lessons and learn fast.
                Verse

G----------------------------|
D----------------------------|
A-0-0-4-0-0-4-0-0-4-0-0------|
E-----------------------3-0--|

Chorus

G---------------|
D---------------|
A-3-3----5------|
E-----3------5--|

Solo

G-----------------------|
D-----------------------|
A-----------------------|
E-5-5-5-5-5-5-5-5-5-5-5-|
            
Tabs too difficult? Try these video lessons and learn fast.


comments powered by Disqus
↑ Back to top | Tablatures and chords are parodies/interpretations of the original songs. You may use it for private study, scholarship, research or language learning purposes only