» » »

Whipping Bass tabs (ver.1)

Artists:  A B C D E F G H I J K L M N O P Q R S T U V W X Y Z # 

Whipping Bass tabs (ver.1)

Pearl Jam
Rating:
0/5 (0 votes)

Tabs too difficult? Try these video lessons and learn fast.
                intro:

after guitar intro fill:
g|----------------|
d|----------------|
a|-7-5-7-5--------|
e|---------5-7-7\-|

g|---------------------------------|---------------------------------|
d|---------------------------------|---------------------------------|
a|-------------------------------5-|---------------------------------|
e|-0-0---3---3---5---5---3/5-5-7---|-0-0---3---3---5---5---0---0-3-5-|

g|---------------------------------|---------------------------------|
b|---------------------------------|---------------------------------|
a|---------------------------------|-------------------------7-5-----|
e|-0-0---3---3---5---5---3/5-5-7---|-0-0---3---3---5---5-5/7-----7-5-|

verse 1/ chorus 1:

g|---------------------------------|---------------------------------|
d|---------------------------------|---------------------------------|
a|-------------------------------5-|---------------------------------|
e|-0-0---3---3---5---5---3/5-5-7---|-0-0---3---3---5---5---0---0-3-5-|

g|---------------------------------|---------------------------------|
b|---------------------------------|---------------------------------|
a|-------------------------------5-|---------------------5-7---5-----|
e|-0-0---3---3---5---5---3/5-5-7---|-0-0---3---3-5-7---7---------7\--|

g|---------------------------------|---------------------------------|
d|---------------------------------|---------------------------------|
a|-------------------------------5-|---------------------------------|
e|-0-0---3---3---5---5---3/5-5-7---|-0-0---3---3---5---5---0---0-3-5-|

g|---------------------------------|---------------------------------|
b|---------------------------------|---------------------------------|
a|-------------------------------5-|-------------------------7-5-----|
e|-0-0---3---3---5---5---3/5-5-7---|-0-0---3---3---5---5-5/7-----7---|

               4 times
g|---------------------------------|
d|---------------------------------|
a|---------------------------------|
e|-0-0---3---3---5---5---3---3-3---|

prechorus:

       7 times
g|-----------------|-----------------|
d|-----------------|-7-5-------------|
a|-7-7-7-7-7-7-7-7-|-----7-5-7-5-----|
e|-----------------|-------------7-5-|

-> chorus 2 (like chorus 1)

interlude:

stacato!
g|---------------------------------|------------------------------------|
d|---------------------------------|------------------------------------|
a|-0---0---0---0---0---0---0---0---|-0---0---0---0---0---0--/10-12-10---|
e|-'---'---'---'---'---'---'---'---|-'---'---'---'---'---'--------------|

-> chorus 3/ endchorus
            
Tabs too difficult? Try these video lessons and learn fast.




comments powered by Disqus
↑ Back to top | Tablatures and chords are parodies/interpretations of the original songs. You may use it for private study, scholarship, research or language learning purposes only