» » »

Why Go Bass tabs (ver.4)

Artists:  A B C D E F G H I J K L M N O P Q R S T U V W X Y Z # 

Why Go Bass tabs (ver.4)

Pearl Jam
Rating:
0/5 (0 votes)
Tabs too difficult? Try these video lessons and learn fast.
                -----------------------------------------------------------------------------
			                               Why Go - Pearl Jam    
-----------------------------------------------------------------------------

Tuning: Standard

This is a Pretty cool riff by Jeff, one of my favorite bass lines by Pearl Jam. 
The bass line contains several Hammer-ons and slides.

Intro
  
G|---------------|
D|---------------|
A|---------------|
E|---------5h7-0-|

G|----------------------|
D|----------------------|
A|------------------5h7-| x2
E|-0-5h7-0--0-0-5h7-----|

G|-------------------------|
D|-------------------------|
A|------------------5------|
E|-0-5h7-0--0-0-5h7---7-5\3|

G|----------------------|
D|----------------------|
A|------------------5h7-| x8
E|-0-5h7-0--0-0-5h7-----|

Verse

G|--------------------|
D|--------------------|
A|------------------5-| x19
E|-0-5h7-0--0-0-5h7---|

G|-------------------------|
D|-------------------------|
A|------------------5------|
E|-0-5h7-0--0-0-5h7---7-5\3|

Chorus

          Why Go Home?       Why Go Home?       Why Go Home?           
G|------------------------------------------------------------------|
D|------------------------------------------------------------------|
A|------------------------------------------------------------------|
E|-0--0-0-----------------------------------------------------0/12\-|

Verse

Pre-Chorus 
         +  +  +     +  +
G|-------------5----------|------------------------|
D|-------------5-----7--5-|------------------------|
A|----7--7--7--------7--5-|-7--7---7---7---7-7-----|
E|-0--0-----------0-------|---0---0---0---0----0-0-|

Chorus

G|-----------------------------------------|
D|-----------------------------------------|
A|-7--7---------------------5--5-5--5--5h6-| x3
E|-------7--7-7--7--7\3--3-----------------|

G|-------------------------------|
D|-------5-----------------------|
A|-------3--3-3--3--3-3----5--5/-|
E|-0--0-----------------0--------|

Guitar Solo

G|----------------------------------------------------|
D|--------------------------------------------------5-|
A|-7--7-7-----------------------5--5-5-5--5-5-5-5h7---| x3
E|--------3---3-3-3-3--0--5h6h7-----------------------|

G|---------------------------------------------------|
D|----------5--5-5--5--5/9--7-5-7-5------------------|
A|-7--------------------------------7p5-7p5----------|
E|----0-0-0---------------------------------7-6-5--3-|

G|----------------------------------------------------|
D|--------------------------------------------------5-|
A|-7--7-7-----------------------5--5-5-5--5-5-5-5h7---| x2
E|--------3---3-3-3-3--0--5h6h7-----------------------|

G|----------------------------------------------|
D|----------------------------------------------|
A|---------------------------------5h6p5--5-5-0-|
E|-0--0-0--3--3-3-3-3-3-0--5--6--7--------------|

G|---------------------------------------------------------|
D|---------------------------------------------------------|
A|-7--7-7\----------------10\9-7-9\7-5-7-5-----------------|
E|---------3---3-3--3--0-------------------7-6-5-3-5-5-3-3-|

Last Chorus

G|-----------------------------------------|
D|-----------------------------------------|
A|-7--7---------------------5--5-5--5--5h6-| x4
E|-------7--7-7--7--7\3--3-----------------|

G|-------------------------------|
D|-------5-----------------------|
A|-------3--3-3--3--3-3----5--5/-|
E|-0--0-----------------0--------|
 
      let ring
G|----------------------|
D|----------------------|
A|----5-----------------|
E|-0------------------0-|



| /  slide up
| \  slide down
| h  hammer-on
| p  pull-off
| ~  vibrato
| +  harmonic
| x  Mute note
=============================================================================
            
Tabs too difficult? Try these video lessons and learn fast.


comments powered by Disqus
↑ Back to top | Tablatures and chords are parodies/interpretations of the original songs. You may use it for private study, scholarship, research or language learning purposes only