» » »

World Wide Suicide Bass tabs (ver.2)

Artists:  A B C D E F G H I J K L M N O P Q R S T U V W X Y Z # 

World Wide Suicide Bass tabs (ver.2)

Pearl Jam
Rating:
0/5 (0 votes)

Tabs too difficult? Try these video lessons and learn fast.
                Bassist - Jeff Ament
Album - Pearl jam


Intro/Pre-Chorus

G||---------------------------------------------------------|
D||---------------------------------------------------------|
A||-----------------------------------------3-3-3-3-5-5-5-5-|
E||--5-5-x--2-3---5-5-x--2-3---5-5-x--2-3-------------------|


Verse - there is ot the actual part to be played but i just play open strings cause im lazy

A||--0--------------------------------|
 I felt the earth on monday....

A||--0--------------------------------|
In the form of a morning paper...

G||--0--------------------------------|
Saw his face in a corner picture....

G||--0--------------------------------|
Could not stop staring at the.....

Chorus
   
G||------------------------------------------------------|
D||------------------------------------------------------|
A||--------3-----------3-----------3-----5-5-5-5-5-5-5-5-|
E||--5-5-x---3---5-5-x---3---5-5-x---3-------------------|


Solo - dont know what it is sounds something like this

Bridge

G||-----------------------------------|
D||-----------------------------------|
A||-----------------------------------|
E||--7-7-7-7-7-7-7-7-5-5-5-5-5-5-5-5--|


Order
Intro/prechorus
Verse
Intro/prechorus
Chorus
Verse
Intro/prechorus
Chorus
Solo???
Verse - but play intro/prechorus
Chorus
            
Tabs too difficult? Try these video lessons and learn fast.


comments powered by Disqus
↑ Back to top | Tablatures and chords are parodies/interpretations of the original songs. You may use it for private study, scholarship, research or language learning purposes only