» » »

Canyonlands Tabs (ver.1)

Artists:  A B C D E F G H I J K L M N O P Q R S T U V W X Y Z # 

Canyonlands Tabs (ver.1)

Person L
Rating:
5/5 (1 vote)
Tabs too difficult? Try these video lessons and learn fast.
                INTRO
e-0~-------------0~---4----------------0~-------------0~-|
B-0~---2~---0~---4~-----5--------------0~---2~---0~---4~-|
G-2~---4~---4~------------4-6-4-6---/--2~---4~---4~------|
D--------------------------------------------------------|
A--------------------------------------------------------|
E--------------------------------------------------------|

VERSE/MAIN RIFF
e---0~-------------0~----------------0~-----------0~-|
B---0~---2~---0~---4~---0-4-5-555----0~--2~--0~---4~-|
G-4-2~---4~---4~-------------------4-2~--4~--4~------|
D----------------------------------------------------|
A----------------------------------------------------|
E----------------------------------------------------|

e-0~--------------------0~---0-----7-------7---------0~-|
B-0~---2~---0~---4~---5-0~-----2-----9--------9------4~-|
G-2~---4~---4~----------4~-------------9---------9------|
D-------------------------------------------------------|
A-------------------------------------------------------|
E-------------------------------------------------------|

e-0~---7-----7----------7--------0~-|
B-0~-----9------9----------9-----4~-|
G-4~-------9------9----------9------|
D-----------------------------------|
A-----------------------------------|
E-----------------------------------|

Play before verse 2
e-0-0-0--0~-------------0~-|
B-5-4-5--0~---2~---0~---4~-|
G--------2~---4~---4~------|
D--------------------------|
A--------------------------|
E--------------------------|

Repeat Main Riff until 4.50

Then play this until the end,
e-4-----------------|
B---5---------------|
G-----4-6-66-6-4----|
D-----------------6-|
A-------------------|
E-------------------|
            
Tabs too difficult? Try these video lessons and learn fast.


comments powered by Disqus
↑ Back to top | Tablatures and chords are parodies/interpretations of the original songs. You may use it for private study, scholarship, research or language learning purposes only