» » »

In The Flesh! Bass tabs (ver.4)

Artists:  A B C D E F G H I J K L M N O P Q R S T U V W X Y Z # 

In The Flesh! Bass tabs (ver.4)

Pink Floyd
Rating:
0/5 (0 votes)

Tabs too difficult? Try these video lessons and learn fast.
                (Live)
-------------------------------------------------------------------------------
                             In The Flesh? by Pink Floyd
-------------------------------------------------------------------------------
Tuning: Standard
This is my first attempt at making a tab. Please let me know what you think of it. I
don't know if I got the timing quite correct throughout but if you listen to the song
you'll easily be able to follow along.

I reviewed a lot of tabs online to base it off of. Most notably ver 2 here by Jérôme
the way.

I wanted to do one closer to the live version from the "Is There Anybody Out There"
album. Anyone that knows Floyd knows Roger Waters had to cut down a lot of the songs on the
studio album in order to put it on the market. The live versions more closely emulate 
Roger's ideas. Not that this tab is supposed to match exactly but this is my 
interpretation. Enjoy!!!!!

G|--------------------------------------------|--------------------------------------------|
D|--------------------------------------------|--10--\--5--/--7----------------------------|
A|---------------------------------0--2--3----|--------------------------------------------|
E|--0--0--------2--------3--------------------|-----------------------0--0-----0--0--------|

G|--------------------------------------------|--------------------------------------------|
D|--------------------------------------------|--10--\--5--/--7----------------------------|
A|---------------------------------0--2--3----|--------------------------------------------|
E|-----0--------2--------3--------------------|-----------------------0--0-----0--0--------|

G|--------------------------------------------|--------------------------------------------|
D|0-------------2---------------------3-------|--------------2---------------------3--2----|
A|--------------------------------------------|--------------------------------------------|
E|--0--0------------------0-0-----------------|--0-0-----------------0-0-------------------|

G|--------------------------------------------|--------------------------------------------|
D|0-------------2---------------------3-------|--------------5-----------------------------|
A|--------------------------------------------|--------------------------------------------|
E|--0--0------------------0-0-----------------|--0-0-----------------0-0-------------------|

G|--------------------------------------------|--------------------------------------------|
D|--------------------------------------------|--------------------------------------------|
A|--------4--2-----------------5--4--2--------|--------4--2-----------------5--4--2--------|
E|----5------------5--4--2--------------------|----5------------5--4--2--------------------|

G|--------------------------------------------|--------------------------------------------|
D|--------------------------------------------|----2---------------------------------------|
A|--------4--2----0--1--2----5--4--2-3-4------|--------5--4--2-----------------------------|
E|----5---------------------------------------|---------------------------0----0-0---------|

=
Vocals No Bass
=

G|--------------------------------------------|--------------------------------------------|
D|--------------------------------------------|--------------------------------------------|
A|--------4--2-----------------5--4--2--------|--------4--2-----------------5--4--2--------|
E|----5------------5--4--2--------------------|----5------------5--4--2--------------------|

G|--------------------------------------------|--------------------------------------------|
D|--------------------------------------------|----2---------------------------------------|
A|--------4--2----0--1--2----5--4--2-3-4------|--------5--4--2-----------------------------|
E|----5---------------------------------------|---------------------------0----0-0---------|




G|--------------------------------------------|--------------------------------------------|
D|--------------------------------------------|--------------------------------------------|
A|--------------------------------------------|0/-----12\---0/-------15\----0/-------------|
E|---0----0----0----0-------------------------|--------------------------------------------|
                                     Let ring                           Random slides on A


| /  slide up
| \  slide down
| h  hammer-on
| p  pull-off
| ~  vibrato
| +  harmonic
| x  Mute note
            
Tabs too difficult? Try these video lessons and learn fast.




comments powered by Disqus
↑ Back to top | Tablatures and chords are parodies/interpretations of the original songs. You may use it for private study, scholarship, research or language learning purposes only