>
 >
Shine On You Crazy Diamond Parts 5-9

Shine On You Crazy Diamond Parts 5-9 Guitar Tabs

Pink Floyd - Shine On You Crazy Diamond Parts 5-9 chords, tabs, tablatures, lyrics

Guitar lessons | Add/correct | Request | Top 50 tabs Artists:  A B C D E F G H I J K L M N O P Q R S T U V W X Y Z 0-9

Shine On You Crazy Diamond Parts 5-9 Guitar Tabs – Pink Floyd

CD, Sheet music, Poster

Do you like Shine On You Crazy Diamond Parts 5-9? Share with your friends now
Tabs
This is the first solo to Shine On You Crazy Diamond. It uses a slide.

/= slide

e|---------------------------------------------------------------------------|
B|---------------------------------------------------------------------------|
G|----------12-----12/10----------12---------15/14------9----10/12-----3/2-0-|
D|---/12----------------10/12------------------------------------------------|
A|---------------------------------------------------------------------------|
E|---------------------------------------------------------------------------|

e|---------------------------------------------------------------------------|
B|------------------------------------------------------/15/----/13/---------|
G|------------12--------12/10-------------12---------------------------------|
D|----10/12---------------------10/12----------------------------------------|
A|---------------------------------------------------------------------------|
E|---------------------------------------------------------------------------|

e|---------------------------------------------------------------------------|
B|---11/10----------------------------------/17/-----------------------------|
G|----------------/12------0/12----------------------------------------------|
D|---------------------------------------------------------------------------|
A|---------------------------------------------------------------------------|
E|---------------------------------------------------------------------------|

e|---------------------------------------------------------------------------|
B|---------------------------------------------------------------------------|
G|----12--------7/5----3/7-----------/10--/9----------9/7--------------------|
D|----------------------------------------------------------7/8----10/12-----|
A|---------------------------------------------------------------------------|
E|---------------------------------------------------------------------------|

e|--------------------------------------------------------------15/----------|
B|---------------------------------------------------------/15---------------|
G|---12---12/10------------12---------15/14-----10/12---------------6/12-----|
D|----------------10/12------------------------------------------------------|
A|---------------------------------------------------------------------------|
E|---------------------------------------------------------------------------|

e|--------------------------------------------3------------------------------|
B|--11/10/8/6-----------------------3---/3-----------------------------------|
G|-------------7/5/3/2---------2/3-----------------3/0-----------------------|
D|-----------------------3/5----------------------------5/3----3/5/3---------|
A|--------------------------------------------------------------------5------|
E|---------------------------------------------------------------------------|

e|--------15----15/13----------15---------15/18----15------15-----15/13------|
B|--/15-------------------/15------/15----------------/15--------------------|
G|---------------------------------------------------------------------------|
D|---------------------------------------------------------------------------|
A|---------------------------------------------------------------------------|
E|---------------------------------------------------------------------------|

e|---------13/15-------------15----------------------------------------------|
B|---15------------13/15-----------------------------------------------------|
G|---------------------------------------------------------------------------|
D|---------------------------------------------------------------------------|
A|---------------------------------------------------------------------------|
E|---------------------------------------------------------------------------|

e|---/22----/20------18--17-----15/13/15---15/-------------27--27/25---------|
B|-----------------------------------------------5/17----------------25/27---|
G|---------------------------------------------------------------------------|
D|---------------------------------------------------------------------------|
A|---------------------------------------------------------------------------|
E|---------------------------------------------------------------------------|

e|---27/25-------29---30---29---27----27/25-------25---27--------------------|
B|-------------------------------------------/27-----------------------------|
G|---------------------------------------------------------------------------|
D|---------------------------------------------------------------------------|
A|---------------------------------------------------------------------------|
E|---------------------------------------------------------------------------|

e|---30--27--25--30--27--27--25--30--27--25----------------------------------|
B|---------------------------------------------------------------------------|
G|---------------------------------------------------------------------------|
D|---------------------------------------------------------------------------|
A|---------------------------------------------------------------------------|
E|---------------------------------------------------------------------------|

e|----30--29--27--25--22--20--18--17-----------------------------------------|
B|---------------------------------------------------------------------------|
G|---------------------------------------------------------------------------|
D|---------------------------------------------------------------------------|
A|---------------------------------------------------------------------------|
E|---------------------------------------------------------------------------|

e|---15--------------------------------15----------18--17--15--13------------|
B|------15/13-----------15-------/15-----------------------------------------|
G|---------------/15---------------------------------------------------------|
D|---------------------------------------------------------------------------|
A|---------------------------------------------------------------------------|
E|---------------------------------------------------------------------------|

e|---/15---------------------------------------------------------------------|
B|-----------15/13-----------------------/15---------------------------------|
G|-----------------------/15-------12----------12----------------------------|
D|---------------------------------------------------------------------------|
A|---------------------------------------------------------------------------|
E|---------------------------------------------------------------------------|

***NOTE***

*I know that most guitars have no more than 24 frets(from what I have seen throughout my 
career), so for higher notes, the slide could make a sound of the higher notes if you 
go by the pickups of an electric and estimate.

***NOTE***





Comments


Popular Pink Floyd tabs & chords
Another Brick In The Wall Pt. 3 Bass Tabs
Interstellar Overdrive Bass Tabs
Pigs 2 Bass Tabs
Vera 1 Chords
Biding My Time 3 Tabs
San Tropez Tabs
Signs Of Life Tabs
Burning Bridges Ukulele
Matilda Mother Ukulele
Paranoid Eyes Ukulele


Song lyrics



↑ Back to top | Tablatures and chords are parodies/interpretations of the original songs. You may use it for private study, scholarship, research or language learning purposes only
© 2014 AZChords.com Contact us | Privacy policy | DMCA | Add/correct tabs | Request tabs | Top 50 tabs