» » »

The Gnome Bass tabs (ver.1)

Artists:  A B C D E F G H I J K L M N O P Q R S T U V W X Y Z # 

The Gnome Bass tabs (ver.1)

Pink Floyd
Rating:
0/5 (0 votes)

Tabs too difficult? Try these video lessons and learn fast.
                -------------------------------------------------------------------------------
			     The Gnome - Pink Floyd
-------------------------------------------------------------------------------


Tuning:Standard

Listen for correct rythym

Riff 1
G|---------------------------------|
D|----4-7--4-----------------------|
A|-5-------------4-7--4--5----5~---|
E|------------5-------------5------|

Riff 2
G|-------------|
D|-------------|
A|----5-7------|
E|-8------8--8-|

Riff 3
G|----7-----------------------------------|
D|-5--------7-----------------------------|
A|-------5--------8-----10----3--------5~-|
E|-------------6-----8-----1-----5--5-----|

Riff 4
G|-------------------------------------------7--7-------------|
D|-5--5--5--5--5--5--3--3--7--7--------5--5--------5~~~~~-----|
A|-------------------------------7--7-----------------------5-|
E|------------------------------------------------------------|

Riff 5
G|-------------------------|
D|-------------------------|
A|-5~-----5~---------------|
E|----5---------3--5--3--5-|

Riff 6
G|----7-4-----------------------------------------------------------|
D|-5-------5-----7-4------------------------------------------------|
A|------------5-------5-----8-5--------10-7--------3-0-----------5~-|
E|-----------------------6-------6--8--------8--1-------1--5--5-----|

Riff 7
G|----------------------|
D|-5~~~~~~~~~~~~~-------|
A|------------------5~~-|
E|----------------------|

Line Up
Riff 1
Riff 2 x2
Riff 1
Riff 2 x2
Riff 3
Riff 1
Riff 2 x2
Riff 1
Riff 2 x2
Riff 3
Riff 4
Riff 5 x2
Riff 6
Riff 4
            
Tabs too difficult? Try these video lessons and learn fast.




comments powered by Disqus
↑ Back to top | Tablatures and chords are parodies/interpretations of the original songs. You may use it for private study, scholarship, research or language learning purposes only