» » »

Purple Sabbath Tabs (ver.1)

Artists:  A B C D E F G H I J K L M N O P Q R S T U V W X Y Z # 

Purple Sabbath Tabs (ver.1)

Poison The Well
Rating:
5/5 (1 vote)

Tabs too difficult? Try these video lessons and learn fast.
                -------------------------------------------------------------------------------
-------------------------------------------------------------------------------

Tuning: Dropped C (CGCFAD)




Guitar 1

D|---------------------------------------------------------------------------|
A|---------------------------------------------------------------------------|
F|-------5/7---------5\4-4 }    ---------------------------------------------|
C|-5--5--5/7-0---5-5-5\4-4 } x8 ---------------------------------------------|
G|-5--5--3/5-0---5-5-3\2-2 }    ---------------------------------------------|
C|-5--5------0---5-5---------------------------------------------------------|

Guitar 2

D|---------------------------------------------------------------------------|
A|--9--9---------9--9----  }    ---------------------------------------------|
F|-10-10--------10-10----  }    ---------------------------------------------|
C|-----------------------  } x8 ---------------------------------------------|
G|-11-11--------11-11----  }    ---------------------------------------------|
C|---------------------------------------------------------------------------|

__________________________________________________________________________________________________
Guitar 1
<0:35>
D|---------------------------------------------------------------------------|
A|---------------------------------------------------------------------------|
F|---------------------------------------------------------------------------|
C|-5-5-5-5-5-5-5-5-0-0-0-0-0-0-0-0-------------------------------------------|
G|-5-5-5-5-5-5-5-5-0-0-0-0-0-0-0-0-------------------------------------------|
C|-5-5-5-5-5-5-5-5-0-0-0-0-0-0-0-0-------------------------------------------|

Guitar 2
<0:35>
D|---------------------------------------------------------------------------|
A|--9-9-9-9-9-9-9-91515151515151515------------------------------------------|
F|-10101010101010101616161616161616------------------------------------------|
C|---------------------------------------------------------------------------|
G|-11111111111111111717171717171717------------------------------------------|
C|---------------------------------------------------------------------------|
  (being ten on the F string, not one and zero and eleven on the G string, not one and one)

__________________________________________________________________________________________________
Guitar 1
<0:39>          <0:48>                    <1:01>      <1:14>
D|---------------------------------------------------------------------------|
A|-8-------------8-------------------------7---8--------8--------------------|
F|-7---------------7--------------------------------------7------------------|
C|-5-----------------5--------------------------------------5----------------|
G|-5-------------------------------------------------------------------------|
C|-5-------------------------------------------------------------------------|

Guitar 2
<0:39>                     <0:54>                               <1:22>
D|---------------------------------------------------------------------------|
A|-8-------------------------------------------------------------------------|
F|-7-------------------------------------------------------------------------|
C|-5-----------------------77774411------------------------------77774411----|
G|-5-------------------------------------------------------------------------|
C|-5-------------------------------------------------------------------------|

__________________________________________________________________________________________________
Guitar 1
  <1:27>
D|---------------------------------------------------------------------------|
A|---------------------------------------------------------------------------|
F|---------------------------------------------------------------------------|
C|-55555555555555555555555555555555------------------------------------------|
G|---------------------------------------------------------------------------|
C|---------------------------------------------------------------------------|

__________________________________________________________________________________________________
Guitar 1
  <1:36>
D|---------------------------------------------------------------------------|
A|---------------------------------------------------------------------------|
F|---------------------------------------------------------------------------|
C|-6-6-6-6-3-3-3-3-5-5-5-5-5-5-5-5-6-6-6-6-3-3-3-3-5-5-5-5-5-5-5-5-----------|
G|-6-6-6-6-3-3-3-3-5-5-5-5-5-5-5-5-6-6-6-6-3-3-3-3-5-5-5-5-5-5-5-5-----------|
C|-6-6-6-6-3-3-3-3-5-5-5-5-5-5-5-5-6-6-6-6-3-3-3-3-5-5-5-5-5-5-5-5-----------|

__________________________________________________________________________________________________
Guitar 1
<1:53>    <2:03>     <2:09>           <2:15>
D|---------------------------------------------------------------------------|
A|-8-------8-----------------------------------------------------------------|
F|-7---------7---------------------------------------------------------------|
C|-5-----------5-----77774411---------55555555555555555555555555555555-------|
G|-5-------------------------------------------------------------------------|
C|-5-------------------------------------------------------------------------|

__________________________________________________________________________________________________
Guitar 1
  <2:24>
D|---------------------------------------------------------------------------|
A|---------------------------------------------------------------------------|
F|---------------------------------------------------------------------------|
C|-6-6-6-6-3-3-3-3-5-5-5-5-5-5-5-5-6-6-6-6-3-3-3-3-5-5-5-5-5-5-5-5-----------|
G|-6-6-6-6-3-3-3-3-5-5-5-5-5-5-5-5-6-6-6-6-3-3-3-3-5-5-5-5-5-5-5-5-----------|
C|-6-6-6-6-3-3-3-3-5-5-5-5-5-5-5-5-6-6-6-6-3-3-3-3-5-5-5-5-5-5-5-5-----------|

__________________________________________________________________________________________________
Guitar 1
  <2:42>                          <2:50>
D|---------------------------------------------------------------------------|
A|---------------------------------------------------------------------------|
F|---------------------------------------------------------------------------|
C|-6-6-6-6-3-3-3-3-5-5-5-5-5-5-5-5-1-1-1-1-1-1-1-1-5-5-5-5-5-5-5-5-----------|
G|-6-6-6-6-3-3-3-3-5-5-5-5-5-5-5-5-1-1-1-1-1-1-1-1-5-5-5-5-5-5-5-5-----------|
C|-6-6-6-6-3-3-3-3-5-5-5-5-5-5-5-5-1-1-1-1-1-1-1-1-5-5-5-5-5-5-5-5-----------|
                                  [...........Palm Mute...........]
Guitar 2                          <2:50>           
D|---------------------------------------------------------------------------|
A|---------------------------------------------------------------------------|
F|--------------------------------h11-------------h12------------------------|
C|---------------------------------------------------------------------------|
G|---------------------------------------------------------------------------|
C|---------------------------------------------------------------------------|
                                  [Let Ring]      [Let Ring]
__________________________________________________________________________________________________
Guitar 1
 <3:00>
D|---------------------------------------------------------------------------|
A|---------------------------------------------------------------------------|
F|---------------------------------------------------------------------------|
C|-1-1-1-1-1-1-1-1-5-5-5-5-5-5-5-5-1-1-1-1-1-1-1-1-5-5-5-5-5-5-5-5-----------|
G|-1-1-1-1-1-1-1-1-5-5-5-5-5-5-5-5-1-1-1-1-1-1-1-1-5-5-5-5-5-5-5-5-----------|
C|-1-1-1-1-1-1-1-1-5-5-5-5-5-5-5-5-1-1-1-1-1-1-1-1-5-5-5-5-5-5-5-5-----------|
  [...........................Palm Mute...........................]

Guitar 2
 <3:00>
D|---------------------------------------------------------------------------|
A|-13------------------------------13----------------------------------------|
F|-----------------15------------------------------15------------------------|
C|-----------------12----------------------12--------------------------------|
G|---------------------------------------------------------------------------|
C|---------------------------------------------------------------------------|
 [Let Ring.......................][Let Ring.......................]

__________________________________________________________________________________________________
Guitar 1
<3:17>
D|---------------------------------------------------------------------------|
A|---------------------------------------------------------------------------|
F|---------------------------------------------------------------------------|
C|-1-1-1-1-1-1-1-1-5-5-5-5-5-5-5-5-------------------------------------------|
G|-1-1-1-1-1-1-1-1-5-5-5-5-5-5-5-5-------------------------------------------|
C|-1-1-1-1-1-1-1-1-5-5-5-5-5-5-5-5-------------------------------------------|
  [...........Palm Mute...........]

Guitar 2
<3:17>
D|---------------------------------------------------------------------------|
A|-13------------------------------------------------------------------------|
F|-----------------15--------------------------------------------------------|
C|--------12-----------------------------------------------------------------|
G|---------------------------------------------------------------------------|
C|---------------------------------------------------------------------------|
 [Let Ring.......................]

__________________________________________________________________________________________________
Guitar 1
<3:30>
D|---------------------------------------------------------------------------|
A|---------------------------------------------------------------------------|
F|---------------------------------------------------------------------------|
C|-0--0--0-0-1---0-0--5p4-4  }     ------------------------------------------|
G|-0--0--0-0-1---0-0--5p4-4  }x4   ------------------------------------------|
C|-0--0--0-0-1---0-0--544-4  }     ------------------------------------------|

Guitar 2
<3:30> (Tremolo picking on fifteen on the A string - well that's what I hear)
D|---------------------------------------------------------------------------|
A|-151515151515151515151515 }x4    ------------------------------------------|
F|---------------------------------------------------------------------------|
C|---------------------------------------------------------------------------|
G|---------------------------------------------------------------------------|
C|---------------------------------------------------------------------------|

__________________________________________________________________________________________________
Guitar 1
<3:47>
D|---------------------------------------------------------------------------|
A|---------------------------------------------------------------------------|
F|---------------------------------------------------------------------------|
C|-5-5-5-5-5-5-5-5-0-0-0-0-3-3-8-8-------------------------------------------|
G|-5-5-5-5-5-5-5-5-0-0-0-0-3-3-8-8-------------------------------------------|
C|-5-5-5-5-5-5-5-5-0-0-0-0-3-3-8-8-------------------------------------------|

Guitar 2
<3:47>
D|---------------------------------------------------------------------------|
A|-12121212121212121515151515151515------------------------------------------|
F|-13131313131313131616161616161616------------------------------------------|
C|---------------------------------------------------------------------------|
G|-14141414141414141717171717171717------------------------------------------|
C|---------------------------------------------------------------------------|

__________________________________________________________________________________________________
Guitar 1
<3:51>
D|---------------------------------------------------------------------------|
A|---------------------------------------------------------------------------|
F|-------5/7----------5\4-4--------------------------------------------------|
C|-5--5--5/7-0----5-5-5\4-4--------------------------------------------------|
G|-5--5--3/5-0----5-5-3\2-2--------------------------------------------------|
C|-5--5------0----5-5--------------------------------------------------------|

Guitar 2
<3:51>
D|---------------------------------------------------------------------------|
A|-15-15-15--15--15-15-15-15-------------------------------------------------|
F|-16-16-16--16--16-16-16-16-------------------------------------------------|
C|---------------------------------------------------------------------------|
G|-17-17-17--17--17-17-17-17-------------------------------------------------|
C|---------------------------------------------------------------------------|

__________________________________________________________________________________________________


| /  slide up
| \  slide down
| h  hammer-on
| p  pull-off
| ~  vibrato
| +  harmonic
| x  Mute note
===============================================================================
            
Tabs too difficult? Try these video lessons and learn fast.




comments powered by Disqus
↑ Back to top | Tablatures and chords are parodies/interpretations of the original songs. You may use it for private study, scholarship, research or language learning purposes only