» » »

To Mandate Heaven Bass tabs (ver.1)

Artists:  A B C D E F G H I J K L M N O P Q R S T U V W X Y Z # 

To Mandate Heaven Bass tabs (ver.1)

Poison The Well
Rating:
0/5 (0 votes)
Tabs too difficult? Try these video lessons and learn fast.
                UPDATE: Fixed a couple of errors.

Drop D tuning (DADG)

|----|----|----|----|----|----|----|----|----|----|----|----|----|----|----|----|
|----|----|----|----|----|----|----|----|----|----|----|----|----|----|----|----|
|5-4-|3-4-|5-4-|3-6-|5-4-|3-4-|6-6-|5-4-|5-4-|3-4-|5-4-|3-6-|5-4-|3-4-|6-6-|5-4-|
|----|----|----|----|----|----|----|----|----|----|----|----|----|----|----|----|

|------|------|------|------|------|------|------|------|
|------|------|------|------|------|------|------|------|
|------|5-----|------|5-----|------|5-----|6--6--|5--4--|
|000000|---000|000000|---000|000000|---000|------|------|

|------|------|------|------|------|------|------|------|
|------|------|------|------|------|------|------|------|
|------|5-----|------|5-----|------|5-----|6--6--|5--4--|
|000000|---000|000000|---000|000000|---000|------|------|

|------|------|------|------|------|------|------|------|
|------|------|------|------|------|------|------|------|
|------|------|------|------|------|------|6--6--|5--4--|
|000000|000000|000000|000000|000000|000000|------|------|

|------|------|------|------|------|------|------|------|
|------|------|------|------|------|------|------|------|
|------|------|------|------|------|------|6--6--|5--4--|
|000000|000000|000000|000000|000000|000000|------|------|

|------|------|------|------|------|------|------|------|
|------|------|------|------|------|------|------|------|
|------|------|------|------|------|------|------|------|
|000000|0--000|0000--|0-----|000000|0--000|0000--|0-----|

|------|------|------|------|------|------|------|------|
|3--3--|3--3--|3--3--|3--3--|3--3--|3--3--|3--3--|3--3--|
|------|------|------|------|------|------|------|------|
|------|------|------|------|------|------|------|------|

|------|------|------|------|------|------|------|------|
|3--3--|3--3--|3--3--|3--3--|3--3--|3--3--|3--3--|3--3--|
|------|------|------|------|------|------|------|------|
|------|------|------|------|------|------|------|------|

|----|----|----|----|----|----|----|----|----|----|----|----|----|----|----|----|
|---7|----|-7--|----|---3|----|----|----|---7|----|-7--|----|---3|----|----|----|
|555-|--55|5---|5-5-|111-|----|----|1-1-|555-|--55|5---|5-5-|111-|----|----|1-3-|
|----|----|----|----|----|----|----|----|----|----|----|----|----|----|----|----|

|----|----|----|----|----|----|----|----|----|----|----|----|----|----|----|----|
|---7|----|-7--|----|---3|----|----|----|---7|----|-7--|----|---3|----|----|----|
|555-|--55|5---|5-5-|111-|--1-|----|----|555-|--55|5---|5-5-|111-|----|----|----|
|----|----|----|----|----|----|----|----|----|----|----|----|----|----|----|----|

|----|----|----|----|----|----|----|----|----|----|----|----|----|----|----|----|
|3-3-|--3-|3---|3-3-|3-3-|--3-|3---|3-3-|3-3-|--3-|3---|3-3-|3-3-|--3-|3---|3-3-|
|----|----|----|----|----|----|----|----|----|----|----|----|----|----|----|----|
|----|----|----|----|----|----|----|----|----|----|----|----|----|----|----|----|

|----|----|----|----|
|----|----|----|----|
|----|----|----|----|
|----|----|----|----|

|------|------|------|------|------|------|------|------|
|------|------|------|------|------|------|------|------|
|------|------|------|------|------|------|------|------|
|000000|0--000|0000--|0-----|000000|0--000|0000--|0-----|

|------|------|------|------|------|------|------|------|
|------|------|------|------|------|------|------|------|
|------|------|------|------|------|------|------|------|
|000000|0--000|0000--|0-----|000000|0--000|0000--|0-----|

|------|------|------|------|------|------|------|------|
|------|------|------|------|------|------|------|------|
|------|------|------|------|------|------|------|------|
|000000|0--000|0000--|0-----|000000|0--000|0000--|0-----|

|------|------|------|------|------|------|------|------|
|------|------|------|------|------|------|------|------|
|------|------|------|------|------|------|------|------|
|000000|0--000|0000--|0-----|000000|0--000|0000--|0-----|

|------|------|------|------|------|------|------|------|
|------|------|------|------|------|------|------|------|
|------|------|------|------|------|------|------|------|
|0-----|------|------|------|------|------|------|------|

|------|------|------|------|------|------|------|------|
|------|------|------|------|------|------|------|------|
|------|------|------|------|------|------|------|------|
|------|------|------|------|0-----|------|------|------|

|------|------|------|------|------|------|------|------|
|------|------|------|------|------|------|------|------|
|------|------|------|------|------|------|------|------|
|------|------|------|------|------|------|------|------|

|------|------|------|------|------|------|------|------|
|------|------|------|5-5-5-|------|------|------|------|
|5-5-5-|1-1-1-|5-5-5-|------|5-5-5-|1-1-1-|0-0-0-|------|
|------|------|------|------|------|------|------|5-5-5-|

|------|------|------|------|------|------|------|------|
|------|------|------|5-5-5-|------|------|------|------|
|5-5-5-|1-1-1-|5-5-5-|------|5-5-5-|1-1-1-|0-0-0-|------|
|------|------|------|------|------|------|------|5-5-5-|

|------|------|------|------|------|------|------|------|
|------|------|------|5-5-5-|------|------|------|------|
|5-5-5-|1-1-1-|5-5-5-|------|5-5-5-|1-1-1-|0-0-0-|------|
|------|------|------|------|------|------|------|5-5-5-|

|------|------|------|------|------|------|------|------|
|------|------|------|5-5-5-|------|------|------|------|
|5-5-5-|1-1-1-|5-5-5-|------|5-5-5-|1-1-1-|0-0-0-|------|
|------|------|------|------|------|------|------|5-5-5-|

|------|------|------|------|------|------|------|------|
|------|------|------|------|------|------|------|------|
|5-----|------|------|------|------|------|------|------|
|------|------|------|------|------|------|------|------|
            
Tabs too difficult? Try these video lessons and learn fast.


comments powered by Disqus
↑ Back to top | Tablatures and chords are parodies/interpretations of the original songs. You may use it for private study, scholarship, research or language learning purposes only