» » »

Fractured Like Chandeliers Tabs (ver.1)

Artists:  A B C D E F G H I J K L M N O P Q R S T U V W X Y Z # 

Fractured Like Chandeliers Tabs (ver.1)

Polvo
Rating:
0/5 (0 votes)
Tabs too difficult? Try these video lessons and learn fast.
                
----------------------------------------------------

Standard Tuning

Opening Riff/Verse

------------------------------------------------------------------------|
------------------------------------------------------------------------|
---10-11-10----10-11-10-------------------------------------------------|
---10-11-10----10-11-10-------11-11-11-11-11-11-11----------------------|
---10-11-10----10-11-10-------11-11-11-11-11-11-11----------------------|
------------------------------9---9--9--9--9--9--9----------------------|

"from the roof of my house"
------------------|
------------------|
------------------|
-6-6---4----------|
-6-6---4----------|
-4-4---2----------|

Chorus

" you need to see it "

---------------6-76---------------------------|
----------------------------------------------|
-8-8-8----------------------------------------|
-8-8-8----------------8-8-8-8-8-8-------------|
-6-6-6----------------8-8-8-8-8-8-------------|
----------------------6-6-6-6-6-6-------------|

"I can see this lucky ice burg"

------------------------------------------------------------------|
------------------------------------------------------------------|
-999-99-999-99-----8-------------------8-6-3----------------------|
-999-99-999-99-----8------4-6-8-8---------------------------------|
-707-77-777-07-----6----------------------------------------------|
-000-00-000-00----------------------------------------------------|

soft little part (2x)

-----------------------------------------------------------------------|
-----------------------------------------------------------------------|
-----8-10-8-7----------8-10-8-7-------8--------------------------------|
-----8-----------------8--------------8----565--88-10-12---------------|
-----6-----------------6--------------6--------------------------------|
-----------------------------------------------------------------------|

This next part 4x

----------------------------------------|
------------------------12-9------------|
--8-10-11---9-9---------------8-8-------|
------------9-9---------------8-8-------|
------------7-7---------------6-6-------|
----------------------------------------|

Do this 4x and go back to the part above

---------------------------------------------|
---------------------------------------------|
---------------------------------------------|
---------------------------------12----------|
---55-6-55-6-55-6---------13-----------------|
---33-4-33-4-33-4-----11---------------------|

Final part

--------------------------------------------------|
--------------------------------------------------|
---------------9---9--9---------------------------|
---9-9-9-------6---7--6-----99-88-99-88-----------|
---9-9-9--------------------77-66-77-66-----------|
---7-7-7------------------------------------------|

Then just do the "soft little bit" part and repeat. (Listen to the song for correct 
and what not.)
            
Tabs too difficult? Try these video lessons and learn fast.


comments powered by Disqus
↑ Back to top | Tablatures and chords are parodies/interpretations of the original songs. You may use it for private study, scholarship, research or language learning purposes only