» » »

Bunyi Gitar Tabs (ver.1)

Artists:  A B C D E F G H I J K L M N O P Q R S T U V W X Y Z # 

Bunyi Gitar Tabs (ver.1)

P Ramlee
Rating:
0/5 (0 votes)

Tabs too difficult? Try these video lessons and learn fast.
                Intro
     E     D   E      D
e|--------------------7-7--7-5-7----|--------------------7-7--7-5-7----|
b|------5-7-8-7-8-5---9-9--9-7-9----|------5-7-8-7-8-5---9-9--9-7-9----|
G|--4-6---------------9-9--9-7-9----|--4-6---------------9-9--9-7-9----|
D|--------------------9-9--9-7-9----|--------------------9-9--9-7-9----|
A|--------------------7¡X7--7-5-7---|--------------------7-7--7-5-7----|
E|----------------------------------|----------------------------------|

AB     E     D   E
e|-12-12-12-12-10-9--------|----------------|--11-11-9-------------|-----------|
b|------------------12-10--|--9-10-11-12----|----------12-10-9-7-5-|-3-3-3-5-5-|
G|-------------------------|----------------|----------------------|-----------|
D|-------------------------|----------------|----------------------|-----------|
A|-------------------------|----------------|----------------------|-----------|
E|-------------------------|----------------|----------------------|-----------|


Verse

EEm
e|--7-7-7-7-7-7-5-4-7--|--7-7-7-7-7-7-5-3-7--|
b|---------------------|---------------------|
G|---------------------|---------------------|
D|---------------------|---------------------|
A|---------------------|---------------------|
E|---------------------|---------------------|

 
EB
e|--7-7-7-7-7-7-5-4-7--|--12-12-12-12-12-12-10-7-12--|
b|---------------------|-----------------------------|
G|---------------------|-----------------------------|
D|---------------------|-----------------------------|
A|---------------------|-----------------------------|
E|---------------------|-----------------------------|
            
Tabs too difficult? Try these video lessons and learn fast.




comments powered by Disqus
↑ Back to top | Tablatures and chords are parodies/interpretations of the original songs. You may use it for private study, scholarship, research or language learning purposes only